Oops, an error
Loading. Please wait.

Dont Mean To Brag Bass Tab

version 1
version 1

Whole song

1 view 1 this week
no commentswrite comment
1 2 3 4 5
3 more votes to show rating
add to favorites
launch autoscroll
font size
0
reset
guitar tuner
Autoscroll
slow
fast
+/-
esc
set tempo
stop
Help us to improve Ultimate-Guitar.com Take our survey!
×
Author
Difficulty
Tuning
intermediate
D# G# C# F# A# D#
[Intro]

F#|---------------------------------------------------------------------------|
C#|---------------------------------------------------------------------------|
G#|--------------------------4------------------------------------------------|
D#|--/10----5--5--6--6----5----/10----5--5--6--6--5--5------------------------|


[Verse 1]

F#|---------------------------------------------------------------------------|
C#|----------5-7-------7-----------9------------------------------------------|
G#|--5--7--8--------------------------------------4---------------------------|
D#|----------------0-5---0-5---6-6---0-6-0---5--------------------------------|


F#|---------------------------------------------------------------------------|
C#|----------5-7-------7-----------9------------------------------------------|
G#|--5--7--8--------------------------------------4---------------------------|
D#|----------------0-5---0-5---6-6---0-6-0---5--------------------------------|


F#|---------------------------------------------------------------------------|
C#|----------5-7-------7-----------9------------------------------------------|
G#|--5--7--8--------------------------------------4---------------------------|
D#|----------------0-5---0-5---6-6---0-6-0---5--------------------------------|


F#|---------------------------------------------------------------------------|
C#|----------5-7-------7------------------------------------------------------|
G#|--5--7--8------------------------------------------------------------------|
D#|----------------0-5---0-5---6-6-6-6-5\-------------------------------------|


A-Fos ah uh
F#|---------------------------------------------------------------------------|
C#|---------------------------------------------------------------------------|
G#|--------------------------4------------------------------------------------|
D#|--/10----5--5--6--6----5----/10----5--5--6--6------------------------------|

F#|---------------------------------------------------------------------------|
C#|-----------------------------------------------8/10\8-7--------------------|
G#|--------------------------4-----------------------------10-8-7-------------|
D#|--/10----5--5--6--6----5----/10----5--5--6--6------------------------------|


[Chorus 1]

Don't mean to brag
F#|---------------------------------------------------------------------------|
C#|--------------------------------------------5-----------------5------------|
G#|---------------------------------------------------------------------------|
D#|--10-10-10\---5--5----10-10-10\---5--4--3-3---0-3---5--4--3-3---0-3---5--5-|


[Post-Chorus 1]

How ya gonna brag like that?
F#|---------------------------------------------------------------------------|
C#|-----------------------------------------------5---------------5-----------|
G#|---------------------------------------------------------------------------|
D#|--10\---------5--5--------10\--------5--4--3-3---3---5--4--3-3---0-3--5--5-|


[Verse 2]

F#|---------------------------------------------------------------------------|
C#|---------------------------------------------------------------------------|
G#|---------------------------------------------------------------------------|
D#|---------------------------------------------------------------------------|

F#|---------------------------------------------------------------------------|
C#|---------------------------------------------------------------------------|
G#|-------------------------4-----------------------4-------------------------|
D#|--/10----5--5--6--6----5----/10----5--5--6--6--5---------------------------|

F#|---------------------------------------------------------------------------|
C#|---------------------------------------------------------------------------|
G#|---------------------------4-----------------------------------------------|
D#|--/10-10---5--5--6--6----5----/10-10---5--5--6-6-6-6-5-5-5-5---------------|

F#|---------------------------------------------------------------------------|
C#|-----------------------------------------------8/10\8-7--------------------|
G#|--------------------------4-----------------------------10-8-7-------------|
D#|--/10----5--5--6--6----5----/10----5--5--6--6------------------------------|


[Chorus 2]

Don't mean to brag
F#|---------------------------------------------------------------------------|
C#|--------------------------------------------5-----------------5------------|
G#|---------------------------------------------------------------------------|
D#|--10-10-10\---5--5----10-10-10\---5--4--3-3---0-3---5--4--3-3---0-3---5--5-|

How ya gonna brag like that?
F#|---------------------------------------------------------------------------|
C#|-----------------------------------------------5---------------5-----------|
G#|---------------------------------------------------------------------------|
D#|--10\---------5--5--------10\--------5--4--3-3---3---5--4--3-3---0-3--5--5-|


[Guitar Solo]

low dynamic, colin solos
F#|---------------------------------------------------------------------------|
C#|---------------------------------------------------------------------------|
G#|-----------------------------4-----------------------------4---------------|
D#|--10--10----5--5--6--6----5-----10--10----5--5--6--6----5------------------|

dynamic build to finish off colin's solo big
F#|---------------------------------------------------------------------------|
C#|---------------------------------------------------------------------------|
G#|-----------------------------4-----------------------------4---------------|
D#|--10--10----5--5--6--6----5-----10--10----5--5--6--6----5------------------|


[Bass solo, if you want! haha]


[Drum Solo]

F#|---------------------------------------------------------------------------|
C#|---------------------------------------------------------------------------|
G#|---------------------------------------------------------------------------|
D#|--10----6----10----6----10-10-10----6-6-6----10-10-10----6-6-6-6--5-5------|


[Post-Chorus 2]

How ya gonna brag like that?
F#|---------------------------------------------------------------------------|
C#|---------------------------------------------------------------------------|
G#|---------------------------------------------------------------------------|
D#|----------------------------------------------------------------------5--5-|


[Outro]

F#|---------------------------------------------------------------------------|
C#|----------5-7-------7-----------9------------------------------------------|
G#|--5--7--8--------------------------------------4---------------------------|
D#|----------------0-5---0-5---6-6---0-6-0---5--------------------------------|

F#|---------------------------------------------------------------------------|
C#|----------5-7-------7-----------9------------------------------------------|
G#|--5--7--8--------------------------------------4---------------------------|
D#|----------------0-5---0-5---6-6---0-6-0---5--------------------------------|

F#|---------------------------------------------------------------------------|
C#|----------5-7-------7-----------9------------------------------------------|
G#|--5--7--8--------------------------------------4---------------------------|
D#|----------------0-5---0-5---6-6---0-6-0---5--------------------------------|

F#|---------------------------------------------------------------------------|
C#|----------5-7-------7-----------8/10\8-7-----------------------------------|
G#|--5--7--8--------------------------------10-8-7----------------------------|
D#|----------------0-5---0-5---6-6-----------------10-------------------------|
                                   gradually slow down


************************************

| /   Slide up
| \   Slide down

************************************
Suggest correction
Give kudos to tab author, rate the tab!
1 2 3 4 5
comments
print report bad tab
guest
You may want to rate the tab now too:
select rating
Wanna post a correction for this tab? Suggest correction