Oops, an error
Loading. Please wait.

Dont Mean To Brag Bass Tab

version 1
version 1

Live

Whole song

1 view 1 this week
no commentswrite comment
1 2 3 4 5
2 more votes to show rating
add to favorites
launch autoscroll
font size
0
reset
guitar tuner
Autoscroll
slow
fast
+/-
esc
set tempo
stop
Help us to improve Ultimate-Guitar.com Take our survey!
×
Difficulty
Tuning
intermediate
D# G# C# F# A# D#
[Intro]

G|---------------------------------------------------------------------------|
D|---------------------------------------------------------------------------|
A|---------------------------4-----------------------------------------------|
E|-5/10-10----5--5--6-6----5---5/10-10----5--5--6-6----5--5------------------|

G|---------------------------------------------------------------------------|
D|-------5-7------7-----------8----------------------------------------------|
A|-5-7-8------------------------------------4---(3X)-------------------------|
E|------------0-5---0-5---6-6---0-6-0---0-5----------------------------------|

G|---------------------------------------------------------------------------|
D|-------5-7------7----------------------------------------------------------|
A|-5-7-8---------------------------------------------------------------------|
E|------------0-5---0-5---6-6-6-6-5\-----------------------------------------|


[Verse 1]

G|---------------------------------------------------------------------------|
D|---------------------------------------------------------------------------|
A|------------------------4--------------------------------------------------|
E|-------10\--5-5--6-6--5-----/10-10--5-5-6-6--------------------------------|

G|---------------------------------------------------------------------------|
D|---------------------------------------------8/10\8--7---------------------|
A|------------------------4------------------------------10-8-7--------------|
E|-------10\--5-5--6-6--5-----/10-10--5-5-6-6--------------------------------|


[Chorus]

I don't mean to brag

G|---------------------------------------------------------------------------|
D|-------------------------------------------5------------------5------------|
A|---------------------------------------------------------------------------|
E|-10-10-10\----5--5--10-10-10\----5--4--3-3---0-3-----5-4--3-3---0-3--5--5\-|

How you gone brag like that

G|---------------------------------------------------------------------------|
D|------------------------------------------5-------------------5------------|
A|---------------------------------------------------------------------------|
E|-10\-----------5--5-------10\----5--4-3-3------3-----5-4--3-3-----3--5--5--|


[Verse 2]

G|---------------------------------------------------------------------------|
D|---------------------------------------------------------------------------|
A|---------------------------------------------------------------------------|
E|---------------------------------------------------------------------------|

G|---------------------------------------------------------------------------|
D|---------------------------------------------------------------------------|
A|---------------------------------------------------------------------------|
E|---------------------------------------------------------------------------|

G|---------------------------------------------------------------------------|
D|---------------------------------------------------------------------------|
A|------------------------4----------------------4---------------------------|
E|-------10\--5-5--6-6--5-----/10-10--5-5-6-6--5-----------------------------|

G|---------------------------------------------------------------------------|
D|---------------------------------------------------------------------------|
A|------------------------4--------------------------------------------------|
E|-------10\--5-5--6-6--5------10\--5-5--6-6-6-6-5-5-5-5---------------------|

G|---------------------------------------------------------------------------|
D|---------------------------------------------8/10\8--7---------------------|
A|------------------------4------------------------------10-8-7--------------|
E|-------10\--5-5--6-6--5-----/10-10--5-5-6-6--------------------------------|


[Chorus]

I don't mean to brag

G|---------------------------------------------------------------------------|
D|-------------------------------------------5------------------5------------|
A|---------------------------------------------------------------------------|
E|-10-10-10\----5--5--10-10-10\----5--4--3-3---0-3-----5-4--3-3---0-3--5--5\-|

How you gone brag like that?

G|---------------------------------------------------------------------------|
D|------------------------------------------5-------------------5------------|
A|---------------------------------------------------------------------------|
E|-10\-----------5--5-------10\----5--4-3-3------3-----5-4--3-3-----3--5--5--|


[Solo Section]

Palm muted  

G|---------------------------------------------------------------------------|
D|---------------------------------------------------------------------------|
A|-5-5-----------------------4-5-5------------------------4-5-5--------------|
E|------------5--5--6-6----5--------------5--5--6-6-----5--------------------|

Building up dynamically until Colin finishes rippin his solo

G|---------------------------------------------------------------------------|
D|---------------------------------------------------------------------------|
A|-5-5-----------------------4-5-5------------------------4-5-5--------------|
E|------------5--5--6-6----5--------------5--5--6-6-----5--------------------|

Bass solo if you want one, haha! If not, straight into paul's drum solo

G|---------------------------------------------------------------------------|
D|---------------------------------------------------------------------------|
A|---------------------------------------------------------------------------|
E|-10\--------------6---------------------10\--------------6-----------------|


G|---------------------------------------------------------------------------|
D|---------------------------------------------------------------------------|
A|---------------------------------------------------------------------------|
E|-10-10-10---------6-6-6-----------------10-10-10------------6-6-6-6-5--5---|

How you gone brag like that?

G|---------------------------------------------------------------------------|
D|---------------------------------------------------------------------------|
A|---------------------------------------------------------------------------|
E|---------------------------------------------------------------------------|

G|---------------------------------------------------------------------------|
D|---------------------------------------------------------------------------|
A|---------------------------------------------------------------------------|
E|--------------------------------------------------------------------5--5---|


[Outro]

G|---------------------------------------------------------------------------|
D|-------5-7------7-----------8----------------------------------------------|
A|-5-7-8------------------------------------4---(3X)-------------------------|
E|------------0-5---0-5---6-6---0-6-0---0-5----------------------------------|

G|---------------------------------------------------------------------------|
D|-------5-7------7-----------8/10\8--7--------------------------------------|
A|-5-7-8----------------------------------10-----8----7----------------------|
E|------------0-5---0-5---6-6-------------------------------10---------------|


************************************

| /   Slide up
| \   Slide down

************************************
Suggest correction
Give kudos to tab author, rate the tab!
1 2 3 4 5
comments
print report bad tab
guest
You may want to rate the tab now too:
select rating
Wanna post a correction for this tab? Suggest correction