Oops, an error
Loading. Please wait.

John Travolta Bass Tab

7 views 6 this week
no commentswrite comment
1 2 3 4 5
3 more votes to show rating
add to favorites
launch autoscroll
font size
0
reset
guitar tuner
Autoscroll
slow
fast
+/-
esc
set tempo
stop
Help us to improve Ultimate-Guitar.com Take our survey!
×
Author
Difficulty
Tuning
intermediate
D# G# C# F# A# D#
[Intro]

F#|---------------------------------------------------------------------------|
C#|---------------------------------------------------------------------------|
G#|---------------------------------------------------------------------------|
D#|--7----7--4----4--3----3--5----5--7----7--4----4--3----3--5----------------|

F#|---------------------------------------------------------------------------|
C#|---------------------------------------------------------------------------|
G#|---------------------------------------------------------------------------|
D#|--7\---7--4----4--3----3--5----5--7----7--4----4--3----3--5----------------|


[Verse 1]

F#|---------------------------------------------------------------------------|
C#|---------------------------------------------------------------------------|
G#|---------------------------------------------------------------------------|
D#|--7\---7--4----4--3----3--5----5--7----7--4----4--3----3--5---5----7\------|

F#|---------------------------------------------------------------------------|
C#|---------------------------------------------------------------------------|
G#|-----------------------7~--------------------------------------------------|
D#|--5-4-3------5--------------------7\---7--4----4--3----3--5---5--7---------|

F#|---------------------------------------------------------------------------|
C#|---------------------------------------------------------------------------|
G#|------------------------------------------------8-8------------------------|
D#|--7--4----4--3----3--5---5-5-5-5-5-5-5-5-6--6-6-----6-5--------------------|


[Chorus 1]

You're breaking my heart

F#|---------------------------------------------------------------------------|
C#|---------------------------------------------------------------------------|
G#|--5-5-5-------------------------------------5-5-5--------------------------|
D#|----------------6----3-3-3--------5---------------------6----3-3-3----5----|

John Travolta

F#|---------------------------------------------------------------------------|
C#|---------------------------------------------------------------------------|
G#|--5--5----------5--5-----------------------------------------------------7\|
D#|---------------------------------------------------------------------------|


[Verse 2]

F#|---------------------------------------------------------------------------|
C#|---------------------------------------------------------------------------|
G#|---------------------------------------------------------------------------|
D#|--7----7--7----7--7----7--7----7--7----7--7----7--7----7--7----------------|

Pull up yer feckin jeeeans

F#|---------------------------------------------------------------------------|
C#|---------------------------------------------------------------------------|
G#|---------------------------------------------------------------------------|
D#|----------------------------------7\---7--4----4--3----3--5---5--7---------|

F#|---------------------------------------------------------------------------|
C#|---------------------------------------------------------------------------|
G#|------------------------------------------------8-8------------------------|
D#|--7--4----4--3----3--5---5-5-5-5-5-5-5-5-6--6-6-----6-5--------------------|


[Chorus 2]

You're breaking my heart

F#|---------------------------------------------------------------------------|
C#|---------------------------------------------------------------------------|
G#|--5-5-5-------------------------------------5-5-5--------------------------|
D#|----------------6----3-3-3--------5---------------------6----3-3-3----5----|

John Travolta

F#|---------------------------------------------------------------------------|
C#|---------------------------------------------------------------------------|
G#|--5--5----------5--5-------5--5--5--5--5--5--5--5--5--5--5--5--5--5--5--5--|
D#|---------------------------------------------------------------------------|


[Chorus]

You're breaking my heart (dead chorus)

F#|---------------------------------------------------------------------------|
C#|---------------------------------------------------------------------------|
G#|--5-5-5--------------------------------------------------------------------|
D#|---------------------------------------------------------------------------|

You're breaking my heart

F#|---------------------------------------------------------------------------|
C#|---------------------------------------------------------------------------|
G#|--5-5-5-------------------------------------5-5-5--------------------------|
D#|----------------6----3-3-3--------5---------------------6----3-3-3----5----|

F#|----------7-5--------------------------------------------------------------|
C#|--------7-----7------------------------------------------------------------|
G#|--5-5-5-------------------------------------5-5-5--------------------------|
D#|----------------6----3-3-3--------5---------------------6----3(x8)----5(x8)|


[Outro]

F#|---------------------------------------------------------------------------|
C#|---------------------------------------------------------------------------|
G#|---------------------------------------------------------------------------|
D#|--7----7--4----4--3----3--5----5--7----7--4----4--3------------------------|



************************************

| /   Slide up
| \   Slide down
| ~   Vibrato

************************************
Suggest correction
Give kudos to tab author, rate the tab!
1 2 3 4 5
comments
print report bad tab
guest
You may want to rate the tab now too:
select rating
Wanna post a correction for this tab? Suggest correction