Oops, an error
Loading. Please wait.

No Rules In The Sky Bass Tab

7 views 1 this week
no commentswrite comment
1 2 3 4 5
2 more votes to show rating
add to favorites
launch autoscroll
font size
0
reset
guitar tuner
Autoscroll
slow
fast
+/-
esc
set tempo
stop
Help us to improve Ultimate-Guitar.com Take our survey!
×
Author
Difficulty
Tuning
intermediate
D# G# C# F# A# D#
[Intro]

Damn I feel so nice

I'll tell ya why
F#|---------------------------------------------------------------------------|
C#|---------------------------------------------------------------------------|
G#|---------------------------------------------------------------------------|
D#|--10--10---10--8----10--10---10--5----5------------------------------------|

F#|---------------------------------------------------------------------------|
C#|---------------------------------------------------------------------------|
G#|---------------------------------------------------------------------------|
D#|--10--10---10--8----10--10---10--5----5------------------------------------|


[Verse 1]

F#|---------------------------------------------------------------------------|
C#|---------------------------------------------------------------------------|
G#|--------7\-------5-6------------3------------------------------------------|
D#|--5--5------3--------5--5-----------3--------------------------------------|

F#|---------------------------------------------------------------------------|
C#|---------------------------------------------------------------------------|
G#|--------7\-------5-6------------3------------------------------------------|
D#|--5--5------3--------5--5-----------3--------------------------------------|

F#|---------------------------------------------------------------------------|
C#|---------------------------------------------------------------------------|
G#|--------7\-------5-6------------3------------------------------------------|
D#|--5--5------3--------5--5-----------3--------------------------------------|

F#|---------------------------------------------------------------------------|
C#|---------------------------------------------------------------------------|
G#|--------7\-------5-6-------------------------------------------------------|
D#|--5--5------3--------5----------10---8-------------------------------------|

F#|---------------------------------------------------------------------------|
C#|---------------------------------------------------------------------------|
G#|--5-5-5-3---3-3-2-0-5-5-5-3-----3------------------------------------------|
D#|----------5-----------------5-------3--------------------------------------|

F#|---------------------------------------------------------------------------|
C#|---------------------------------------------------------------------------|
G#|--5-5-5-3---3-3-2-0-5-5-5-3-----10---8-------------------------------------|
D#|----------5-----------------5----------------------------------------------|


[Chorus]

Damn I feel so nice

F#|---------------------------------------------------------------------------|
C#|--------12\----------10\---------------------------------------------------|
G#|--5--5---------3--3--------------------------------------------------------|
D#|----------------------------3-3-3-3--1--3----------------------------------|

F#|---------------------------------------------------------------------------|
C#|--------12\----------10\---------------------------------------------------|
G#|--5--5---------3--3--------------------------------------------------------|
D#|----------------------------3-3-3-3--1--3----------------------------------|

I'll tell ya why

F#|---------------------------------------------------------------------------|
C#|---------------------------------------------------------------------------|
G#|---------------------------------------------------------------------------|
D#|--10--10---10--8----10--10---10--5----5------------------------------------|

F#|---------------------------------------------------------------------------|
C#|---------------------------------------------------------------------------|
G#|---------------------------------------------------------------------------|
D#|--10--10---10--8----10--10---10--5----5------------------------------------|


[Verse 2]

woke up feelin so nice

F#|---------------------------------------------------------------------------|
C#|---------------------------------------------------------------------------|
G#|---------------------------------------------------------------------------|
D#|---------------------------------------------------------------------------|

F#|---------------------------------------------------------------------------|
C#|---------------------------------------------------------------------------|
G#|--5--5--------------------------3------------------------------------------|
D#|-------------------------------------3-------------------------------------|

F#|---------------------------------------------------------------------------|
C#|---------------------------------------------------------------------------|
G#|--5--5--------------------------5-5-5-3---3-3-2-0-5--5-------10----8-------|
D#|----------------------------------------5----------------------------------|

F#|---------------------------------------------------------------------------|
C#|---------------------------------------------------------------------------|
G#|--5-5-5-3---3-3-2-0-5-5-5-3-----3------------------------------------------|
D#|----------5-----------------5-------3--------------------------------------|

F#|---------------------------------------------------------------------------|
C#|---------------------------------------------------------------------------|
G#|--5-5-5-3---3-3-2-0-5-5-5-3-----10---8-------------------------------------|
D#|----------5-----------------5----------------------------------------------|


[Chorus 2]

Damn I feel so nice

F#|---------------------------------------------------------------------------|
C#|--------12\----------10\---------------------------------------------------|
G#|--5--5---------3--3--------------------------------------------------------|
D#|----------------------------3-3-3-3--1--3----------------------------------|

F#|---------------------------------------------------------------------------|
C#|--------12\----------10\---------------------------------------------------|
G#|--5--5---------3--3--------------------------------------------------------|
D#|----------------------------3-3-3-3--1--3----------------------------------|

I'll tell ya why

F#|---------------------------------------------------------------------------|
C#|---------------------------------------------------------------------------|
G#|---------------------------------------------------------------------------|
D#|--10--10---10--8----10--10---10--5----5------------------------------------|

F#|---------------------------------------------------------------------------|
C#|---------------------------------------------------------------------------|
G#|---------------------------------------------------------------------------|
D#|--10--10---10--8----10--10---10--5----5------------------------------------|


[Bridge]

F#|---------------------------------------------------------------------------|
C#|---------------------------------------------------------------------------|
G#|---------------------------------------------------------------------------|
D#|--10-----------------------------------------------------------------------|

F#|-------------------------------------------------------7-5-----------------|
C#|-----------------------------------------------------------7-6-5-3---------|
G#|--5-------3--------5-----------------5--------3----------------------------|
D#|----------------------------5----------------------------------------------|

F#|---------------------------------------------------------------------------|
C#|---------------------------------------------------------------------------|
G#|--5-------3--------5-----------------5--------3--------5-------------------|
D#|----------------------------5-----------------------------------5----------|

F#|---------------------------------------------------------------7-----------|
C#|------------------------------------------------------------7--------------|
G#|--5--5----3--------5--5--------------5--5-----3--------5-------------------|
D#|----------------------------5----------------------------------------------|


[Chorus 3]

Damn I feel so nice

F#|---------------------------------------------------------------------------|
C#|---------------------------------------------------------------------------|
G#|---------------------------------------------------------------------------|
D#|----------------------------3-3-3-3--1--3----------------------------------|

F#|---------------------------------------------------------------------------|
C#|--------12\----------10\---------------------------------------------------|
G#|--5--5---------3--3--------------------------------------------------------|
D#|----------------------------3-3-3-3--1--3----------------------------------|

I'll tell ya why

F#|---------------------------------------------------------------------------|
C#|---------------------------------------------------------------------------|
G#|---------------------------------------------------------------------------|
D#|--10--10---10--8----10--10---10--5----5------------------------------------|

F#|---------------------------------------------------------------------------|
C#|---------------------------------------------------------------------------|
G#|---------------------------------------------------------------------------|
D#|--10--10---10--8----10--10---10--5----5------------------------------------|

F#|---------------------------------------------------------------------------|
C#|---------------------------------------------------------------------------|
G#|---------------------------------------------------------------------------|
D#|--10--10---10--8----10--10---10--5----5------------------------------------|

F#|---------------------------------------------------------------------------|
C#|---------------------------------------------------------------------------|
G#|---------------------------------10--8--5-5-5-5-5--------------------------|
D#|--10--10---10--8----10--10---10--------------------------------------------|



************************************

| /   Slide up
| \   Slide down

************************************
Suggest correction
Give kudos to tab author, rate the tab!
1 2 3 4 5
comments
print report bad tab
guest
You may want to rate the tab now too:
select rating
Wanna post a correction for this tab? Suggest correction