Oops, an error
Loading. Please wait.

Work It Out Bass Tab

1 view 1 this week
no commentswrite comment
1 2 3 4 5
3 more votes to show rating
add to favorites
launch autoscroll
font size
0
reset
guitar tuner
Autoscroll
slow
fast
+/-
esc
set tempo
stop
Help us to improve Ultimate-Guitar.com Take our survey!
×
Author
Difficulty
Tuning
intermediate
D# G# C# F# A# D#
[Verse 1]

F#|---------------------------------------------------------------------------|
C#|---------------------------------------------------------------------------|
G#|-----------------------7--7----8----7--7--5--------5---9-8-7---------------|
D#|--5--6--7----7----7----------------------------5-7---x---------------------|

F#|---------------------------------------------------------------------------|
C#|---------------------------------------------------------------------------|
G#|-----------------------7--7----8---7--7--5---------------------------------|
D#|--7\-----------------------------------------------------------------------|

F#|---------------------------------------------------------------------------|
C#|---------------------------------------------------------------------------|
G#|-----------------------7--7----8----7-----5--------------------------------|
D#|--5--6--7----7----7--------------------------------------------------------|

[Chorus 1]

F#|---------------------------------------------------------------------------|
C#|---------------------------------------------------------------------------|
G#|-----------7--------5--5--7-----------------7-----------------5------------|
D#|--7--------------------------------7-----------------3--3--3---------------|

F#|-----------------7------------9-7-9-10-9-7-----------------7---------------|
C#|-----------9-7-----9-----------------------9---------9-7-----9-------------|
G#|---------------9--------7--7-----------------------------9------5--7--9----|
D#|--7-------------------------------------------5\-------------------------7\|


[Chorus 2]

F#|---------------------------------------------------------------------------|
C#|---------------------------------------------------------------------------|
G#|-----------7--------5--5--7-----------------7-----------------5------------|
D#|--7--------------------------------7-----------------3--3--3---------------|

F#|-----------------7------------9-7-9-10-9-7-----------------7---------------|
C#|-----------9-7-----9-----------------------9---------9-7-----9-------------|
G#|---------------9--------7--7-----------------------------9------5--7--9----|
D#|--7-------------------------------------------5\-------------------------7\|

[Solo Section]

F#|---------------------------------------------------------------------------|
C#|---------------------------------------------------------------------------|
G#|----------------7-----------------------------------5----6--7----5---------|
D#|--7-7-7-7-7-7-7-----------------------5-5-5-5-5-5-5-----------------5------|

F#|---------------------------------------------------------------------------|
C#|---------------------------------------------------------------------------|
G#|----------------7-----------------------------------5----6--7----5---------|
D#|--7-7-7-7-7-7-7-----------------------5-5-5-5-5-5-5-----------------5------|

F#|---------------------------------------------------------------------------|
C#|---------------------------------------------------------------------------|
G#|----------------7-7-7-7-7-7-7-7---------------------5-4-5-6-7-5-7-9--------|
D#|--7-7-7-7-7-7-7-----------------------5-5-5-5-5-5-5------------------------|

F#|---------------------------------------------------------------------------|
C#|---------------------------------------------------------------------------|
G#|----------------7-7-7-7-7-7-7-7---------------------5-4-5-6-7-5-7-9--------|
D#|--7-7-7-7-7-7-7-----------------------5-5-5-5-5-5-5------------------------|

[Chorus 3]

F#|---------------------------------------------------------------------------|
C#|---------------------------------------------------------------------------|
G#|---------------------------------------------------------------------------|
D#|---------------------------------------------------------------------------|

F#|---------------------------------------------------------------------------|
C#|---------------------------------------------------------------------------|
G#|-----------7--------5--5--7-----------------7-----------------5------------|
D#|--7--------------------------------7-----------------3--3--3---------------|

F#|---------------------------------------------------------------------------|
C#|---------------------------------------------------------------------------|
G#|-----------7--------5--5--7-----------------7-----------------5------------|
D#|--7--------------------------------7-----------------3--3--3---------------|
                                                        gradually slow down

************************************


| /   Slide up
| \   Slide down


************************************
Suggest correction
Give kudos to tab author, rate the tab!
1 2 3 4 5
comments
print report bad tab
guest
You may want to rate the tab now too:
select rating
Wanna post a correction for this tab? Suggest correction