Oops, an error
Loading. Please wait.

Analogue Tab

version 1
version 1

Intro

Interactive

by A-ha
5,220 views 3 this week
3 commentsread comments
1 2 3 4 5
x 3
add to favorites
launch autoscroll
font size
0
reset
how to read this tab
guitar tuner
Autoscroll
slow
fast
+/-
esc
set tempo
stop
Help us to improve Ultimate-Guitar.com Take our survey!
×
Author
Difficulty
-------------------------------------------------------------------------------
                             Analogue - A-Ha
-------------------------------------------------------------------------------
Tabbed by: Daniel Sheppard (drummer)
Email: thisnameisgreat@hotmail.com

This riff got stuck in my head and I eventually found out who wrote the song so i 
it and to my horror no tabbed it so i gave it a try.

Tuning:

e|--------------------------------------|
B|--------------------------------------|
G|--------------------------------------|
D|--------------------------------------|
A|-5-5-5-5-6-6-6-6-5-5-5-5-3-3-3-3------|
E|-3-3-3-3-3-3-3-3-1-1-1-1-1-1-1-1------|
Suggest correction
Give kudos to tab author, rate the tab!
1 2 3 4 5
comments
print report bad tab
3 comments total.
0 reply
thisnamebecool 22 Nov 17, 2006 08:47 PM

It would be easier if you tune E down to D. Your fingers won't have to stretch that much then.

0 reply
Chun 82 Aug 29, 2008 08:18 PM

i reckon it's
[Standard Tuning]

e|---------|---------|---------|---------|
B|---------|---------|---------|---------|
G|---------|---------|---------|---------|
D|---------|---------|---------|---------|
A|-5-5-5-5-|-6-6-6-6-|-5-5-5-5-|-3-3-3-3-|
E|-3-3-3-3-|-3-3-3-3-|-3-3-3-3-|-1-1-1-1-|

[Drop D Tuning]

e|---------|---------|---------|---------|
B|---------|---------|---------|---------|
G|---------|---------|---------|---------|
D|---------|---------|---------|---------|
A|-5-5-5-5-|-6-6-6-6-|-5-5-5-5-|-3-3-3-3-|
E|-5-5-5-5-|-5-5-5-5-|-5-5-5-5-|-3-3-3-3-|

then into something like this:

e|------------------------------------------------------|
B|-3-6---3-6---3-6---3-6-6-5---3-6---3-6---3-6---3-6-5--|
G|------------------------------------------------------|
D|------------------------------------------------------|
A|------------------------------------------------------|
E|------------------------------------------------------|

But that's just me...

0 reply
Chun 82 Aug 29, 2008 08:18 PM

i reckon it's
[Standard Tuning]

e|---------|---------|---------|---------|
B|---------|---------|---------|---------|
G|---------|---------|---------|---------|
D|---------|---------|---------|---------|
A|-5-5-5-5-|-6-6-6-6-|-5-5-5-5-|-3-3-3-3-|
E|-3-3-3-3-|-3-3-3-3-|-3-3-3-3-|-1-1-1-1-|

[Drop D Tuning]

e|---------|---------|---------|---------|
B|---------|---------|---------|---------|
G|---------|---------|---------|---------|
D|---------|---------|---------|---------|
A|-5-5-5-5-|-6-6-6-6-|-5-5-5-5-|-3-3-3-3-|
E|-5-5-5-5-|-5-5-5-5-|-5-5-5-5-|-3-3-3-3-|

then into something like this:

e|------------------------------------------------------|
B|-3-6---3-6---3-6---3-6-6-5---3-6---3-6---3-6---3-6-5--|
G|------------------------------------------------------|
D|------------------------------------------------------|
A|------------------------------------------------------|
E|------------------------------------------------------|

But that's just me...

guest
You may want to rate the tab now too:
select rating
Wanna post a correction for this tab? Suggest correction