Oops, an error
Loading. Please wait.

Crying In The Rain bass

by A-ha
347 views 1 this week
no commentswrite comment
1 2 3 4 5
3 more votes to show rating
add to favorites
×
Save as Personal and add changes to this tab that will be seen only by you. Learn more ›
×
You can save this tab as Personal to edit and correct it or add notes. All changes will be seen only by you. Learn more »
launch autoscroll
font size
0
reset
guitar tuner
edit
Autoscroll
slow
fast
+/-
esc
set tempo
stop
Author
Difficulty
Crying In The Rain
Original recording artists The Everly Brothers, this version by the
Norwegian band A-Ha. Released in 1990 it managed only number 13 in UK.
Tab by bass50611. As per original recording and what great version. 
Note the tuning and THE BASS CHORDS. Comments at bass254@btinternet.com 

Intro: (Played Under Special Storm Effects)
             .               .                 .                .
G|----------------------------------------------------------------
D|----------------------------------------------------------------
A|-----------5---------------5-----------------5----------------5-
D|-----------0---------------0-----------------0----------------0-

Verse 1:
   I’ll never let you see....The way my broken heart is hurting me
G|----------------------------------------------------------------
D|----------------------------------------------------------------
A|-5-------------------------5------------------------------------
D|-0-------------------------0------------------------------------

   I’ve got my pride and I know how to hide...All my sorrow and pain
G|------------------------------------------------------------------
D|------------------------------------------------------------------
A|-5-----------------------9----------------------------------------
D|-0-----------------------------------9-------------5--------------

       I’ll do my crying in the rain
G|----------------------------------
D|----------------------------------
A|----------------------------------
D|-7---------------------------9----

Verse 2:
   If I wait for stormy skies...You won’t know the rain from the tears
G|--------------------------------------------------------------------
D|--------------------------------------------------------------------
A|-5----------------------------5-------------------------------------
D|-0----------------------------0-------------------------------------

In my eyes...You’ll never know that I still love you so...Only the
G|----------------------------------------------------------------
D|----------------------------------------------------------------
A|-----------5------------------------9---------------------------
D|-----------0---------------------------------------9------------

   Heartaches remain...I’ll do my crying in the rain
G|--------------------------------------------------
D|--------------------------------------------------
A|--------------------------------------------------
D|-5------------------7-------------------------9---

Bridge:
 Raindrops falling from heaven...Could never take away my misery......Since
G|-------------------------------------------------------------------------
D|-------------------------------------------------------------------------
A|--------------------7--7-7-----------------------------------------------
D|-5--5-5----------------------------7--7-7----------7/12—12-12-11--9--9-9-

We’re not together...I pray for stormy weather
G|--------------------------------------------
D|--------------------------------------------
A|--------------------------------------------
D|---------------------5--5-5-----------------

To hide these tears I hope I hope you’ll never see.       (Pause)
G|-----------------------------------------------------------
D|-----------------------------------------------------------
A|-----------------------------------------------------------
D|-7--7-7--------------------------------------7--7-7---7/12-

Verse3:
  Someday when my crying’s done..I’m gonna wear a smile and walk in the sun
G|-------------------------------------------------------------------------
D|-------------------------------------------------------------------------
A|-5-----------------------------5-----------------------------------------
D|-0-----------------------------0-----------------------------------------

  I maybe a fool but till then darlin’ you’ll never see me complain
G|-----------------------------------------------------------------
D|-----------------------------------------------------------------
A|-5---------------10-----9----------------------------------------
D|-0--------------------------------9---------------5--------------

  I’ll do my crying in the rain
G|-----------------------------
D|-----------------------------
A|-----------------------------
D|-7-----------------------9---

Instrumental:
G|-----------------------------------------------------------------------
D|-----------------------------------------------------------------------
A|-7--77---10--10-10------------------------7--7-7---10--10-10-----------
D|--------------------12--12-12-11---9--9-9--------------------12--12-12-

G|-------------------------------------------
D|-------------------------------------------
A|-7--7-7---7--7-7---10--10-10---------------
D|------------------------------12--12-12-11-

Then Play This:
   Since we’re not together...I pray for stormy weather
G|-----------------------------------------------------
D|-----------------------------------------------------
A|-----------------------------------------------------
D|-9--9-9-----------------------5--5-5-----------------

To hide these tears I hope I hope you’ll never see.        Someday when
G|---------------------------------------------------------------------
D|---------------------------------------------------------------------
A|---------------------------------------------------------------------
D|-7--7-7--------------------------------------7--7-7---7/12-----------

Verse 4:
   my crying’s done...I’m gonna wear a smile and walk in the sun
G|--------------------------------------------------------------
D|--------------------------------------------------------------
A|--------------------5-----------------------------------------
D|--------------------0-----------------------------------------

  I maybe a fool but till then darlin’ you’ll never see me complain
G|-----------------------------------------------------------------
D|-----------------------------------------------------------------
A|-5--------------10------9----------------------------------------
D|-0-----------------------------------9------------5--------------

      I’ll do my crying in the rain...I’LL do my crying in the rain
G|-----------------------------------------------------------------
D|-----------------------------------------------------------------
A|-----------------------------------------------------------------
D|-7---------------------------9-------------------------------9---

  I’ll do my crying in the rain  (Break)
G|-----------------------------
D|-----------------------------
A|-----------------------------
D|-------------------------x---

Repeat Intro To Fade/End



            
            
Suggest correction
Creating personal tab
Creating personal tab
You can edit any tab online and save it as your Personal.

You can edit, replace or remove any tab part or add personal notes – all changes will be seen only by you.

Personal tabs can be accessed anytime from any device, even offline.
Learn more »
Give kudos to tab author, rate the tab!
1 2 3 4 5
comments
print report bad tab
guest
You may want to rate the tab now too:
select rating
Wanna post a correction for this tab? Suggest correction