Oops, an error
Loading. Please wait.

Foot Of The Mountain Tab

by A-ha
3,317 views 1 this week
no commentswrite comment
1 2 3 4 5
please rate
add to favorites
launch autoscroll
font size
0
reset
how to read this tab
guitar tuner
Tab Pro tools
  • play this tab
  • loop segment
  • change instrument
  • show fretboard
  • metronome
Autoscroll
slow
fast
+/-
esc
set tempo
stop
Contributor
Tabs by Leon
Tuning: Standard

Intro

E |--------10------------10------------8------------8-----|
B |--8-7-8----8----8-7-8----8----8-7-8---8----8-7-8---8---|
G |-------------------------------------------------------|
D |-------------------------------------------------------|
A |-------------------------------------------------------|
E |-------------------------------------------------------|
     
       D               D/E            am               
E |--------10-------------10-------------8------------8---|
B |--8-7-8----10----8-7-8----10----8-7-8---8----8-7-8---8-|
G |-------------------------------------------------------|
D |-------------------------------------------------------|
A |-------------------------------------------------------|
E |-------------------------------------------------------|


G                       G/Fis
Keep your clever lines

em
Hold your easy rhymes

G                  G/Fis
Silence everything

em                  C
Silence always wins



        dm
It's a perfect alibi

            C            am
There's no need to analyze

        G
It will be all right

              am
Through the longest night

        G               G/Fis
Just silence everything



em            A           C            G      G/Fis
But we could live by the foot of the mountain

e          A          C           G   G/Fis
We could clear us a yard in the back

am       em   D      C           B
Build a home by the foot of the mountain

em        G               C          G
We could stay there and never come back



G                       G/Fis
Learn from my mistake

em                       
Leave what others take

G                       G/Fis
Speak when spoken to

em                     C
And do what others do



dm
Silence always wins

    C             am
So silence everything
 
         G
It will be all right

        am
In the morning light

       G                G/Fis
Just silence everything



em             A           C            G      G/Fis
But we could live by the foot of the mountain

em          A          C           G   G/Fis
We could clear us a yard in the back

am       em   D      C           B
Build a home by the foot of the mountain

em        G               C          G   G/Fis
We could stay there and never come back

em        G               C          em   
We could stay there and never come back



D am           C      G      G/Fis
     We could live together
        

       em                          am
E |--------10------------10------------8------------8-----|
B |--8-7-8----8----8-7-8----8----8-7-8---8----8-7-8---8---|
G |-------------------------------------------------------|
D |-------------------------------------------------------|
A |-------------------------------------------------------|
E |-------------------------------------------------------|

      D               D/E            am               G  G/Fis
E |--------10-------------10-------------8------------8---|
B |--8-7-8----10----8-7-8----10----8-7-8---8----8-7-8---8-|
G |-------------------------------------------------------|
D |-------------------------------------------------------|
A |-------------------------------------------------------|
E |-------------------------------------------------------|


em             A           C            G      G/Fis
But we could live by the foot of the mountain

em         A          C           G   G/Fis
We could make us a white picket fence

am       em   D      C           B
Build a home by the foot of the mountain

em        G               C          G   G/Fis
we could stay there and see how it ends

em        G               C         G
We could stay there and see how it ends
comments
We did not receive enough feedback on this tab! Please rate:
print report bad tab
1 2 3 4 5
I want to post or [tab]
guest
You may want to rate the tab now too:
select rating
Please do not post tabs as comments. Select "correction" instead!