Oops, an error
Loading. Please wait.

Move To Memphis Bass Tab

by A-ha
232 views 1 this week
no commentswrite comment
1 2 3 4 5
3 more votes to show rating
add to favorites
launch autoscroll
font size
0
reset
guitar tuner
Autoscroll
slow
fast
+/-
esc
set tempo
stop
Help us to improve Ultimate-Guitar.com Take our survey!
×
Author
Difficulty
This is the basic part of the song:
G|----------------|
D|----------------|
A|-----0-2----0-2-|
E|-0-2------2-----|

Bridge:
G|----------------|----------------|
D|-2--------------|-2-0------------|
A|-------0--------|-----2-0-2------|
E|-----2----------|----------------|

That's all!
If you have any questions, please, e-mail me on: anyone_out_there@i.ua
Suggest correction
Give kudos to tab author, rate the tab!
1 2 3 4 5
comments
print report bad tab
guest
You may want to rate the tab now too:
select rating
Wanna post a correction for this tab? Suggest correction