Oops, an error
Loading. Please wait.

Take On Me Bass Tab

version 1
version 1

Whole song

Interactive

by A-ha
40,609 views 126 this week
no commentswrite comment
1 2 3 4 5
accurate
x 10
add to favorites
launch autoscroll
font size
0
reset
guitar tuner
Tab Pro tools
  • play this tab
  • loop segment
  • change instrument
  • show fretboard
  • metronome
×
Best way to learn
"Take On Me"
Autoscroll
slow
fast
+/-
esc
set tempo
stop
Contributor
-------------------------------------------------------------------------------
			     Take on Me - A-ha
-------------------------------------------------------------------------------

Tabbed By : Zucco260 (You can call me Joe)
e-mail: atomicpoptartenator@gmail.com

Tuning: Standard 

(Rest for eight measures)

And if theres about three "---" between notes that means there is a rest of some sort. 
Listen to the song and figure out the rhythm and you'll be rockin'

                                                    Repeat this
G|-4---4---4-4---4----I-4---4---4-4----I-------------------------------------|
D|--------------------I----------------I-------2-2-2-2-2---------0-0-0-------|
A|---2---2-----2---2--I---2---2-----2--I-2-2-2-----------0-0-0-0-------4-4---|
E|--------------------I----------------I-------------------------------------|

G|---------------------------------------------------------------------------|
D|-------2-2-2-2-2------2-2-2-2-2--------------------------------------------|
A|-2-2-2------------2-2------------------------------------------------------|
E|---------------------------------------------------------------------------|
      Verse
G|-------------------------------------------I------------------------------|
D|---------2-2-2-2-2---------0-0-0----------8I-------2-2-2-2-2-4-4-4-4-0-0-0-|
A|---2-2-2-----------0-0-0-0-------4-4------8I-2-2-2-------------------------|
E|-------------------------------------------I-------------------------------|
                        Chorus                   3         3         3
G|-------I-----------------------------------I-------------------------------|
D|-------I----------------------------------8I-------------------------------|
A|-4-4-2-I-0-0-0-0-----------------5-*-5-5--8I-0-0-0---0---------------------|
E|-------I---------4-4-4-4-2-2-2-2-----------I-----------4-4-4---4-2-2-2---2-|
     3
G|---------------------------------------------------------------------------|
D|---------------------------------------------------------------------------|
A|-5-5-5---5-5-0-0-0-0---------5-5-5-5-7-7-7-7-------------------------------|
E|---------------------4-4-4-4-----------------------------------------------|

Verse
Chorus

G|--------------------------------------I------------------------------------|
D|-------------------5-5-5-5-0---5-5---8I--------------2-2-2-2-2-2-2---------|
A|-4-4-4-4---4-4-4-4-------------------8I--2-2-2-2-2-2-----------------------|
E|--------------------------------------I------------------------------------|

Rest for four measures then proceed into the verse
End with Chorus

| /  slide up
| \  slide down
| h  hammer-on
| p  pull-off
| ~  vibrato
| +  harmonic
| x  Mute note
* Quarter note rest
3 Triplet rhythm
===============================================================================

comments
print report bad tab
I want to post or [tab]
guest
You may want to rate the tab now too:
select rating
Please do not post tabs as comments. Select "correction" instead!