Oops, an error
Loading. Please wait.

Take On Me Bass Tab

version 1
version 1

Whole song

Interactive

by A-ha
42,697 views 63 this week
no commentswrite comment
1 2 3 4 5
accurate
x 11
add to favorites
launch autoscroll
font size
0
reset
guitar tuner
Autoscroll
slow
fast
+/-
esc
set tempo
stop
Help us to improve Ultimate-Guitar.com Take our survey!
×
Author
-------------------------------------------------------------------------------
                             Take on Me - A-ha
-------------------------------------------------------------------------------

Tabbed By : Zucco260 (You can call me Joe)
e-mail: atomicpoptartenator@gmail.com

Tuning: Standard 

(Rest for eight measures)

And if theres about three "---" between notes that means there is a rest of some sort. 
Listen to the song and figure out the rhythm and you'll be rockin'

                                                    Repeat this
G|-4---4---4-4---4----|-4---4---4-4----|-------------------------------------|
D|--------------------|----------------|-------2-2-2-2-2---------0-0-0-------|
A|---2---2-----2---2--|---2---2-----2--|-2-2-2-----------0-0-0-0-------4-4---|
E|--------------------|----------------|-------------------------------------|

G|---------------------------------------------------------------------------|
D|-------2-2-2-2-2------2-2-2-2-2--------------------------------------------|
A|-2-2-2------------2-2------------------------------------------------------|
E|---------------------------------------------------------------------------|

[Verse]

G|-------------------------------------------|-------------------------------|
D|---------2-2-2-2-2---------0-0-0----------8|-------2-2-2-2-2-4-4-4-4-0-0-0-|
A|---2-2-2-----------0-0-0-0-------4-4------8|-2-2-2-------------------------|
E|-------------------------------------------|-------------------------------|

                      [Chorus]                   3         3         3
G|-------|-----------------------------------|-------------------------------|
D|-------|----------------------------------8|-------------------------------|
A|-4-4-2-|-0-0-0-0-----------------5-*-5-5--8|-0-0-0---0---------------------|
E|-------|---------4-4-4-4-2-2-2-2-----------|-----------4-4-4---4-2-2-2---2-|
     3
G|---------------------------------------------------------------------------|
D|---------------------------------------------------------------------------|
A|-5-5-5---5-5-0-0-0-0---------5-5-5-5-7-7-7-7-------------------------------|
E|---------------------4-4-4-4-----------------------------------------------|

[Verse]

G|-------------------------------------------|-------------------------------|
D|---------2-2-2-2-2---------0-0-0----------8|-------2-2-2-2-2-4-4-4-4-0-0-0-|
A|---2-2-2-----------0-0-0-0-------4-4------8|-2-2-2-------------------------|
E|-------------------------------------------|-------------------------------|

                      [Chorus]                   3         3         3
G|-------|-----------------------------------|-------------------------------|
D|-------|----------------------------------8|-------------------------------|
A|-4-4-2-|-0-0-0-0-----------------5-*-5-5--8|-0-0-0---0---------------------|
E|-------|---------4-4-4-4-2-2-2-2-----------|-----------4-4-4---4-2-2-2---2-|

     3
G|---------------------------------------------------------------------------|
D|---------------------------------------------------------------------------|
A|-5-5-5---5-5-0-0-0-0---------5-5-5-5-7-7-7-7-------------------------------|
E|---------------------4-4-4-4-----------------------------------------------|

G|--------------------------------------|------------------------------------|
D|-------------------5-5-5-5-0---5-5---8|--------------2-2-2-2-2-2-2---------|
A|-4-4-4-4---4-4-4-4-------------------8|--2-2-2-2-2-2-----------------------|
E|--------------------------------------|------------------------------------|

Rest for four measures then proceed into the verse
End with Chorus
Suggest correction
comments
print report bad tab
guest
You may want to rate the tab now too:
select rating
Wanna post a correction for this tab? Suggest correction