Oops, an error
Loading. Please wait.

Take On Me Tab

version 1
version 1

Intro

Whole song

Interactive

by A-ha
35,128 views 21 this week
3 commentsread comments
1 2 3 4 5
accurate
x 13
add to favorites
launch autoscroll
font size
0
reset
how to read this tab
guitar tuner
Autoscroll
slow
fast
+/-
esc
set tempo
stop
Help us to improve Ultimate-Guitar.com Take our survey!
×
-------------------------------------------------------------------------------
                             Take on me - AHA
-------------------------------------------------------------------------------
Tabbed by:Ross davies
Email:

Tuning:normal

e|---2-----2--------------------0---0----4----5----7-----5-----5-----0-------|
B|-----------------3----0---0------------------------------------------------|
G|---------------------------------------------------------------------------|
D|---------------------------------------------------------------------------|
A|---------------------------------------------------------------------------|
E|---------------------------------------------------------------------------|

e|---------2------2------0------2-----0--------------------------------------|
B|---2-----------------------------------------------------------------------|
G|---------------------------------------------------------------------------|
D|---------------------------------------------------------------------------|
A|---------------------------------------------------------------------------|
E|---------------------------------------------------------------------------|

I THINK ITS CORRECT SORRY IF IT ISNT ITS 1 OF MY FIRST TABS
Suggest correction
comments
print report bad tab
3 comments total.
+2 reply
EazyJake 10 wrote on January 14 2009, 07:54 pm

Dude Its great for a first tab i just think the end is a little off. over all great job hommie

0 reply
Rigo 44 10 wrote on February 5 2009, 08:58 pm

I agree with EazyJake I played it right now and the beggining sounded great but the problem was the last 5 notes other then that it's geat

+1 reply
Ralle The King 30 wrote on June 28 2011, 10:29 am

some parts i don't think is right... this is how i correct it.
e|---2-----2----------0---0--0-4-4--5----7-----5-----5--5--0
B|-----------3---0---0--------------------------------------
____________________________________________________________
e|---------2------2------2-----0--0--2-0----------------------
B|---3--------------------------------------------------------

and then play it from the start again but with only one 2. and then play it over and over... ^^

guest
You may want to rate the tab now too:
select rating
Wanna post a correction for this tab? Suggest correction