Oops, an error
Loading. Please wait.

Take On Me Tab

version 2
version 2

Whole song

Interactive

Video

by A-ha
7,835 views 21 this week
1 commentread comment
1 2 3 4 5
x 3
add to favorites
launch autoscroll
font size
0
reset
how to read this tab
guitar tuner
Autoscroll
slow
fast
+/-
esc
set tempo
stop
Help us to improve Ultimate-Guitar.com Take our survey!
×
Difficulty
Tuning
novice
D A D G B E
Ermm well i made the song rocky :)
Tuning: drop D


Intro:
e|------------0-0-0-4-4-5-7-5-5-5-------------------|
B|-7-7----------------------------5---7-7-7-5-5-7-5-|
G|-----9----------------------------6---------------|
D|-------9-9----------------------------------------|
A|--------------------------------------------------|
D|--------------------------------------------------| x3

Verse:
e|-----------------------------------------------------------------|
B|-----------------------------------------------------------------|
G|-----------------------------------------------------------------|
D|-9-9-9-9-9-9-9-9-2-2-2-2-2-2-2-2-7-7-7-7-7-7-7-7-0-0-0-0-0-0-0-0-|
A|-9-9-9-9-9-9-9-9-2-2-2-2-2-2-2-2-7-7-7-7-7-7-7-7-0-0-0-0-0-0-0-0-|
D|-9-9-9-9-9-9-9-9-2-2-2-2-2-2-2-2-7-7-7-7-7-7-7-7-0-0-0-0-0-0-0-0-| x3
^ ^ ^ ^ ^
We're talking away
I don't know what
I'm to say I'll say it anyway
Today's another day to find you
Shying away
I'll be coming for your love, OK?

Chorus:
e|-----------------------------------------------------------------|
B|-----------------------------------------------------------------|
G|-----------------------------------------------------------------|
D|-7-7-7-7-7-7-7-7-2-2-2-2-2-2-2-2-4-4-4-4-4-4-4-4-0-0-0-0-0-0-0-0-|
A|-7-7-7-7-7-7-7-7-2-2-2-2-2-2-2-2-4-4-4-4-4-4-4-4-0-0-0-0-0-0-0-0-|
D|-7-7-7-7-7-7-7-7-2-2-2-2-2-2-2-2-4-4-4-4-4-4-4-4-0-0-0-0-0-0-0-0-| x4
^ ^ ^ ^ ^
Take on me (Take on me)
take me on (Take on me)
I'll be gone
In a day or two

e|-----------------------------------------------------------------|
B|-----------------------------------------------------------------|
G|-----------------------------------------------------------------|
D|-9-9-9-9-9-9-9-9-2-2-2-2-2-2-2-2-7-7-7-7-7-7-7-7-0-0-0-0-0-0-0-0-|
A|-9-9-9-9-9-9-9-9-2-2-2-2-2-2-2-2-7-7-7-7-7-7-7-7-0-0-0-0-0-0-0-0-|
D|-9-9-9-9-9-9-9-9-2-2-2-2-2-2-2-2-7-7-7-7-7-7-7-7-0-0-0-0-0-0-0-0-| x3
^ ^ ^ ^
So needless to say
I'm odds and ends
But that's me stumbling away
Slowly learning that life is OK.
Say after me
It's no better to be safe than sorry

 repeat chorus..

e|-----------------------------------------------------------------|
B|-----------------------------------------------------------------|
G|-----------------------------------------------------------------|
D|-7-7-7-7-7-7-7-7-2-2-2-2-2-2-2-2-4-4-4-4-4-4-4-4-0-0-0-0-0-0-0-0-|
A|-7-7-7-7-7-7-7-7-2-2-2-2-2-2-2-2-4-4-4-4-4-4-4-4-0-0-0-0-0-0-0-0-|
D|-7-7-7-7-7-7-7-7-2-2-2-2-2-2-2-2-4-4-4-4-4-4-4-4-0-0-0-0-0-0-0-0-| x4


(I have no idea what happens then! just make it up xD)
Then Repeat riff.

e|-------------0-0-0-4-4-5-7-------------0-0-0-4-4-5-7-5-5-5---|
B|-7-7------------------------7-7------------------------------|
G|-----9--------------------------9----------------------------|
D|-------9-9------------------------9-9------------------------|

e--------------------|
B--5---7-7-7-5-5-7-5-|
G----6---------------|
D--------------------|


e|------------0-0-0-4-4-5-7-5-5-5-------------------|
B|-7-7----------------------------5---7-7-7-5-5-7-5-|
G|-----9----------------------------6---------------|
D|-------9-9----------------------------------------|
A|--------------------------------------------------|
D|--------------------------------------------------| x3

Thhheennn repeat verse...

Oh the things that you say
Is it life or
Just a play my worries away
You're all the things I've got to
remember
You're shying away
I'll be coming for you anyway

Theeeennnn chorus again xD

Wahey the end
Hope that was ok :)
Suggest correction
Give kudos to tab author, rate the tab!
1 2 3 4 5
comments
print report bad tab
1 comment total.
0 reply
Batskulls 31 Apr 10, 2011 07:58 PM

You wrote the song?

guest
You may want to rate the tab now too:
select rating
Wanna post a correction for this tab? Suggest correction