Oops, an error
Loading. Please wait.

Velvet Tab

version 1
version 1

Whole song

by A-ha
17,429 views 21 this week
1 commentread comment
1 2 3 4 5
x 6
add to favorites
launch autoscroll
font size
0
reset
how to read this tab
guitar tuner
Autoscroll
slow
fast
+/-
esc
set tempo
stop
Help us to improve Ultimate-Guitar.com Take our survey!
×
[Intro]

   C          G    Dm      F      C    G           Dm    F  strum several times
e|---0---------------1---------------0---------------1---1----------------------|
B|-1---0-1-0h1p0-----------------------------------------1----------------------|
G|---------------0---------------------0-2-2/4-0-0-------2----------------------|
D|-----------------3---2-3-2h3p2-------------------3---3-3----------------------|
A|-------------------------------3-3--------------------------------------------|
E|------------------------------------------------------------------------------|

[Riff]

  C G        Dm  F    C G       Dm  F
e|----5/7-3--0p1-----|----5/7---0p1---| one guitar plays chords( C G Dm F)
B|-------------------|----------------| another guitar plays riff and then
G|-------------------|----------------| melody
D|-------------------|----------------|
A|-------------------|----------------|
E|-------------------|----------------|

[Melody]

    C   G       Dm      F      C  G     Dm      F
e|--8-7-8-7h8p7---------------------5-7-----------------------------------------|
B|--------------8-6-5-6-5h6p5-----8-----8-6-5-6-5h6p5---------------------------|
G|----------------------------5-5---------------------5-5-----------------------|
D|------------------------------------------------------------------------------|
A|------------------------------------------------------------------------------|
E|------------------------------------------------------------------------------|

            C     G           Dm    F
            Her skin is like velvet
            Her face cut from stone
            Her eyes when she's smiling
            Will never reach home
            F                 C  G Dm F(play with melody)
            But hear how she sings

            Her touch would be tender
            Her lips would be warm
            But when we're together
            I'm always alone
            But hear how she sings
            But hear how she sings
            Hear how she sings

            Her skin is like velvet
            So I went to her home
            Her place like a palace
            With things you can't own
            Her skin is like velvet
            And hear how she sings
            Hear how she sings...

So, that's all. Enjoy playing this song.
Any Comments, corrections and additions are welcome!



************************************

| h  Hammer-on
| p  Pull-off
| /  Slide up

************************************
Suggest correction
comments
print report bad tab
1 comment total.
0 reply
Iceman86 55 Mar 12, 2005 12:00 AM

Chords are gr8, the tabs good but some bits feel kinda touchy, well done neways
~Ice~

guest
You may want to rate the tab now too:
select rating
Wanna post a correction for this tab? Suggest correction