Oops, an error
Loading. Please wait.

Better Off With Him Tab

version 1
version 1

Whole song

Interactive

by A
4,120 views 1 this week
no commentswrite comment
1 2 3 4 5
accurate
x 5
add to favorites
launch autoscroll
font size
0
reset
how to read this tab
guitar tuner
Autoscroll
slow
fast
+/-
esc
set tempo
stop
Help us to improve Ultimate-Guitar.com Take our survey!
×
Tabbed by:Joe dennis
Email:

buy the new album, teen dance ordinance.

Tuning: dadgbe

Intro/verse

e|--------------------------------------------------------------------------|
B|--------------------------------------------------------------------------|
G|-------7------5---Play til verse ends-------------------------------------|
D|-----7------5-------------------------------------------------------------|
A|---5------3---------------------------------------------------------------|
E|--------------------------------------------------------------------------|

Pre chorus

e|--------------------------------------------------------------------------|
B|--------------------------------------------------------------------------|
G|-----------x-x-7----------------------------------------------------------|
D|--x-x-7----x-x-7---x-x-5--------------------------------------------------|
A|--x-x-7-x2-x-x-5---x-x-5--x4----------------------------------------------|
E|--x-x-7------------x-x-5--------------------------------------------------|

Pre chorus (lead)

e|---------------------------------------------------------------------------|
B|---------------------------------------------------------------------------|
G|-7 6------------7 6--------7//9--------------------------------------------|
D|-----7-5-7-x2-------7-5-7--------------------------------------------------|
A|---------------------------------------------------------------------------|
E|---------------------------------------------------------------------------|

Chorus

e|--------------------------------------------------------------------------|
B|--------------------------------------------------------------------------|
G|-----6--7--4--7-----------------------------------------------------------|
D|--7--6--7--4--7-----------------------------------------------------------|
A|--7--4--5--2--5-----------------------------------------------------------|
E|--7-----------------------------------------------------------------------|

chorus (lead)

e|--------------------------------------------------------------------------|
B|--------------------------------------------------------------------------|
G|----9-9-9-9--6-6-6-6------------------------------------------------------|
D|----------------------7-7-7-7-7-7-7-7-------------------------------------|
A|--------------------------------------------------------------------------|
E|--------------------------------------------------------------------------|


Repeat verse
Pre chorus
Chorus


Bridge

e|--------------------------------------------------------------------------|
B|--------------------------------------------------------------------------|
G|--5-----------------------------------------------------------------------|
D|--5--3--5-----------------------------------------------------------------|
A|--3--3--5-----------------------------------------------------------------|
E|-----3--5-----------------------------------------------------------------|

Intro/verse
pre chorus


e|--------------------------------------------------------------------------|
B|--------------------------------------------------------------------------|
G|---------------6--7--4--7-------------------------------------------------|
D|--7------------6--7--4--7-------------------------------------------------|
A|--7-----leave--4--5--2--5-------------------------------------------------|
E|--7-----------------------------------------------------------------------|

chorus

outro
e|--------------------------------------------------------------------------|
B|--------------------------------------------------------------------------|
G|--4--7--4--7--4--7--------------------------------------------------------|
D|--4--7--4--7--4--7--7-----------------------------------------------------|
A|--2--5--2--5--2--5--7-----------------------------------------------------|
E|--------------------7-----------------------------------------------------|


| /  slide up
| \  slide down
| h  hammer-on
| p  pull-off
| ~  vibrato
| +  harmonic
| x  Mute note
===============================================================================
Suggest correction
comments
print report bad tab
guest
You may want to rate the tab now too:
select rating
Wanna post a correction for this tab? Suggest correction