Oops, an error
Loading. Please wait.

Something's Going On Tab

version 3
version 3

Whole song

Interactive

by A
355 views 3 this week
no commentswrite comment
1 2 3 4 5
please rate
add to favorites
launch autoscroll
font size
0
reset
how to read this tab
guitar tuner
Tab Pro tools
  • play this tab
  • loop segment
  • change instrument
  • show fretboard
  • metronome
×
Best way to learn
"Something's Going On"
Autoscroll
slow
fast
+/-
esc
set tempo
stop
Contributor
-----------------------------------------------------------------------------
A – Something´s Going On
-----------------------------------------------------------------------------
Tabbed by:Audio84ave
Email: yaadi_k@hotmail.de

Tuning: Standard

2 Guitars


Intro:

Guitar1:
Rhythm and strumming not indicated!
e|------------------|--------------------|----------------|----------------|
B|------------------|--------------------|----------------|----------------|
G|---7--------------|--------------------|----------------|----------------|
D|---7--------------|-9------------------|-7--------------|-5--------------|
A|---5--------------|-9------------------|-7--------------|-5--------------|
E|------------------|-7------------------|-5--------------|-3--------------|

Guitar2:
e|------------------|--------------------|----------------|----------------|
B|------------------|--------------------|----------------|----------------|
G|------------------|-4-4----------------|----------------|----------------|
D|-----------4-4-5-5|-----4-4-5-5-7-7----|------7-7-5-5-5-|------4-4-5-5---|
A|12\5-5-5-5--------|--------------------|--7-7-----------|--5-5-----------|
E|------------------|--------------------|----------------|----------------|





Verse:

Both Guitars:
e|---------------------------------------------------------------------------|
B|---------------------------------------------------------------------------|
G|--7-7-7---7-7-7---7-7-7---7-7-7--------------------------------------------|
D|--7-7-7---7-7-7---7-7-7---7-7-7---9-9-9---9-9-9---9-9-9---9-9-9------------|
A|--5-5-5---5-5-5---5-5-5---5-5-5---9-9-9---9-9-9---9-9-9---9-9-9------------|
E|----------------------------------7-7-7—--7-7-7---7-7-7---7-7-7------------|
    * *     * *     * *     * *     * *     * *     * *     * *


e|---------------------------------------------------------------------------|
B|---------------------------------------------------------------------------|
G|---------------------------------------------------------------------------|
D|--7-7-7---7-7-7---7-7-7---7-7-7---5-5-5---5-5-5---5-5-5---5-5-5------------|
A|--7-7-7---7-7-7---7-7-7---7-7-7---5-5-5---5-5-5---5-5-5---5-5-5------------|
E|--5-5-5---5-5-5---5-5-5---5-5-5---3-3-3---3-3-3---3-3-3---3-3-3------------|
    * *     * *     * *     * *     * *     * *     * *     * *




 
Chorus:                         x3
e|----------------------------------|----------------------------------------|
B|----------------------------------|----------------------------------------|
G|---------4--------6---------------|-6---------------4----------------------|
D|-2-------4--------6--------7------|-6---------------4----------------------|
A|-2-------2--------4--------7------|-4---------------2----------------------|
E|-0------(2)------(4)-------5------|----------------------------------------|





Bridge:

e|---------------------------------------------------------------------------|
B|--------------------------------------1------------------------------------|
G|--5----------------5------------------0------------------7-----------------|x2
D|--5----------------7------------------0------------------7-----------------|
A|--3----------------7------------------2------------------5-----------------|
E|-------------------5-------------------------------------------------------|



Small Bridge to Chorus
e|---------------------------------|
B|---------------------------------|
G|-7-------------------------------|x2
D|-7--------7--------9-------5-----|
A|-5--------7--------9-------5-----|
E|----------5--------7-------3-----|

Chorus


Song Order:

Intro
Verse
Chorus
Verse
Chorus
Bridge
Small Bridge
Chorus
Intro


| /  slide up
| \  slide down
| h  hammer-on
| *  palm-muted
| p  pull-off
| ~  vibrato
| +  harmonic
| x  Mute note
===============================================================================



comments
We did not receive enough feedback on this tab! Please rate:
print report bad tab
1 2 3 4 5
I want to post or [tab]
guest
You may want to rate the tab now too:
select rating
Please do not post tabs as comments. Select "correction" instead!