Oops, an error
Loading. Please wait.

Like A Rose Chords

version 1
version 1

Whole song

by A1
206,602 views 120 this week
2 commentsread comments
1 2 3 4 5
x 8
add to favorites
launch autoscroll
font size
0
reset
transpose
0
reset
simplify chords
display chords
guitar tuner
Autoscroll
slow
fast
+/-
esc
set tempo
stop
Help us to improve Ultimate-Guitar.com Take our survey!
×
Note: * means tap string lightly and quickly. Intro can also be played as Bm-C#m-D-E-A


[Intro]

        E||--------------------------------9-10-12-10-9-10*-7---------|
        B||--12-14-15-14-12-14*-11---------------------------9-10-10--|
        G||-----------------------------------------------------------|
        D||-----------------------------------------------------------|
        A||-----------------------------------------------------------|
        E||-----------------------------------------------------------|


[Verse 1]

A
And as I look into your eyes
             Esus          E
I see an angel in disguise
                D
Sent from God above
For me to love
     Bm              E
To hold and idolise


[Verse 2]

              A
And as I hold your body near
                Esus                       E
I'll see this month through to a year
                   D
And then forever on

'Til life is gone
    Bm                      E
I'll keep your loving near


[Bridge]

                     D
And now I've finally found my way
                  Bm                    A
To lead me down this lonely road
     D
All have to do

Is follow you
     Bm                E
To lighten off my load


[Chorus]

                     A
You treat me like a rose
                    E
You give me room to grow
                       D
You shone the light of love on me
                     Bm             E
And gave me air so I can breathe
                A
You open doors that close
                           E           F#m
In a world where anything goes
        D
You give me strength so I stand tall
Bm                       E
Within this bed of earth
                A    (Break)
Just like a rose


[Verse 3]

                   A
And when I feel like hope is gone
                    Esus                   E
You give me strength to carry on
                  D
Each time I look at you

There's something new
     Bm                    E
To keep our loving strong


[Verse 4]

                A
I hear you whisper in my ear
               Esus                 E
All of the words I long to hear
                      D
Of how you'll always be

Here next to me
     Bm                  E
To wipe away my tears

[Bridge]

                     D
And now I've finally found my way
                  Bm                    A
To lead me down this lonely road
     D
All have to do

Is follow you
     Bm                E
To lighten off my load


[Chorus]

                     A
You treat me like a rose
                    E
You give me room to grow
                       D
You shone the light of love on me
                     Bm             E
And gave me air so I can breathe
                A
You open doors that close
                           E           F#m
In a world where anything goes
        D
You give me strength so I stand tall
Bm                       E
Within this bed of earth
              
Just like a rose


[Refrain]

G                      D
And though the seasons change
       A
Our love remains the same
                G
Just like a rose
                    D
You face the thunder
                A
When the sunshine turns to rain
               Bm-C#m-D
Just like a rose


[Chorus] (From A to B)
                     B
You treat my like a rose
                    F#
You give me room to grow
                       E
You shone the light of love on me
                     C#m          F#
And gave my air so I can breathe
                    B
You opened doors I closed
                           G#m      F#
In a world where anything goes
       E
You give me strength so I stand tall
C#m                    F#
Within this bed of earth
                B
Just like a rose

(Repeat Chorus)
Suggest correction
comments
print report bad tab
2 comments total.
0 reply
pnoy408 10 Jan 12, 2003 12:00 AM

Intro: E||--------------------------------9-10-12-10-9-10*-7------------------------
B||--12-14-15-14-12--11---------------------------7-19-10--------------
G||------------------------------------------------------------------------------
D||------------------------------------------------------------------------------
A||------------------------------------------------------------------------------
E||------------------------------------------------------------------------------

0 reply
pnoy408 10 Jan 12, 2003 12:00 AM

Intro: E||--------------------------------9-10-12-10-9-10*-7------------------------
B||--12-14-15-14-12--11------------------------------------7-19-10--------------
G||------------------------------------------------------------------------------
D||------------------------------------------------------------------------------
A||------------------------------------------------------------------------------
E||------------------------------------------------------------------------------

guest
You may want to rate the tab now too:
select rating
Wanna post a correction for this tab? Suggest correction