Oops, an error
Loading. Please wait.

A Slow Parade tab

15,851 views 12 this week
2 commentsread comments
1 2 3 4 5
x 10
add to favorites
×
Save as Personal and add changes to this tab that will be seen only by you. Learn more ›
×
You can save this tab as Personal to edit and correct it or add notes. All changes will be seen only by you. Learn more »
launch autoscroll
font size
0
reset
how to read this tab
guitar tuner
edit
Autoscroll
slow
fast
+/-
esc
set tempo
stop
Author
[Intro]
e|-3h5-3-----------0----------|-3h5-3----------------3---|
B|-------3h5-3-1-3-1---1p0h1--|-------3h5-3-1-3-s5-5-5---|
G|-----------------0h2--------|---------------------(5)--|
D|-----------------3----------|---------------------(5)--|
A|-----------------x----------|---------------------(3)--|
E|-----------------1----------|--------------------------|

e|-3h5-3-----------0----------|-3h5-3----------------3---|
B|-------3h5-3-1-3-1---1p0h1--|-------3h5-3-1-3-1----0---|
G|-----------------0h2--------|----------------------0---|
D|-----------------3----------|-----------------2----0---|
A|-----------------x----------|-----------------3----2---|
E|-----------------1----------|----------------------3---|

[Verse]
                          F
Drag your shadow down the street
            G      C
Is it you I was to meet
                       G     F
With your saints there on a chain
             G     C
Waiting on another rain
F   G   Am     G   F
And I'm go-----ing down
Where the waves will surround
F  G   C    G       F
To the roll and the pound
                  C
Of the wild, wild sea
                 G
Talking sweet to me

[Solo] 
(Key of Am)
e|--------------------|
B|-3b5b5b5b3-1-3-1----|
G|---------------0h2--|  
D|---------------3----|
A|--------------------|
E|---------------1----|

[Verse]
Marching in a slow parade
There are ashes where you laid
Sometimes I don't mind at all
And sometimes head against the wall
The tide will bring and tide will take
Find another horse to break
You're just a rider on a wheel
In a dream where love was real
And I'm going down
Where the waves will surround
To the roll and the pound
Of the wild, wild sea
Talking sweet to me


************************************

| h    Hammer-on
| p    Pull-off
| (n)  Ghost note
| x    Dead note
| b    Bend

************************************

            
            
Suggest correction
Creating personal tab
Creating personal tab
You can edit any tab online and save it as your Personal.

You can edit, replace or remove any tab part or add personal notes – all changes will be seen only by you.

Personal tabs can be accessed anytime from any device, even offline.
Learn more »
comments
print report bad tab
2 comments total.
0 reply
luckycol 10 Jun 29, 2011 02:59 PM

Nice tab but I think it's a an E7 instead of a G on the 'and' in the line "to the roll and the pound"

0 reply
peterhump3 10 Dec 01, 2011 12:32 PM

thank you
does anyone know the echoey effect after the first chorus? solo I guess.
(I am going off the 2010 daytrotter version - can't remember if the album is the same)

guest
You may want to rate the tab now too:
select rating
Wanna post a correction for this tab? Suggest correction