Oops, an error
Loading. Please wait.

Black Rain Black Rain tab

version 1
version 1

Whole song

409 views 1 this week
no commentswrite comment
1 2 3 4 5
3 more votes to show rating
add to favorites
×
Save as Personal and add changes to this tab that will be seen only by you. Learn more ›
×
You can save this tab as Personal to edit and correct it or add notes. All changes will be seen only by you. Learn more »
launch autoscroll
font size
0
reset
how to read this tab
guitar tuner
edit
Autoscroll
slow
fast
+/-
esc
set tempo
stop
Black Rain, Black Rain – A.A. Bondy
        
Open C tuning: C-G-C-G-C-e


      C
Black rain, black rain
      F      
Don't fall on me
C                          G
Can't you see I'm doin' my best
      C
Black rain, black rain
      F
Don't fall on me
C                     G
When I lay to take my rest

    Am             G
And love, it don't die
        F                 C
It just goes from girl to girl
Am            G
Town to town, rose to rose
F
All around the world
       C            F
Like a ghost upon a breeze
     C          F  G
In a land of elegies

      C
Black rain, black rain
      F
Don't catch me low
    C                  G
And cover the sinner sun
      C 
Black rain, black rain
      F
Where can I go
C                            G
When you leave me nowhere to run

    Am             G
And love, it don't die
        F                 C
It just goes from girl to girl
Am            G
Town to town, rose to rose
F
All around the world
       C            F
Like a ghost upon a breeze
     C          F  G
In a land of elegies


[Intro]

e|----------------------------|----------------------------|
C|---0--------------0---------|---0--------------0---------|
G|------------0-----------0---|------------0-----------0---|
C|---------0-----------0------|---------0-----------0------|
G|----------------------------|----------------------------|
C|---0-----------0------------|---7-----------7------------|

e|---0------------------------|----------------------------|
C|------------------0---------|---0--------------0---------|
G|------------0-----------0---|------------0-----------0---|
C|---------0-----------0------|---------0-----------0------|
G|----------------------------|----------------------------|
C|---0-----------0------------|---7-----------7------------|

e|----------------------------|----------------------------|
C|---0-----------0------------|---0-----------0------------|
G|------------0-----------0---|------------0-----------0---|
C|---------0-----------0------|---------0-----------0------|
G|----------------------------|----------------------------|
C|---12---------\11/7---------|---7/9---------7------------|

e|---0------------------------|----------------------------|
C|------------------0---------|---0--------------0---------|
G|------------0-----------0---|------------0-----------0---|
C|---------0-----------0------|---------0-----------0------|
G|----------------------------|----------------------------|
C|---0-----------0------------|---0-----------0------------|

e|----------------------------|----------------------------|
C|---0-----------0------------|---0-----------0------------|
G|------------0-----------0---|------------0-----------0---|
C|---------0-----------0------|---------0-----------0------|
G|----------------------------|----------------------------|
C|---12---------\11/7---------|---7/9---------7------------|

e|----------------------------|---0------------------------|
C|---0--------------0---------|------------------0---------|
G|-------------0-----------0--|------------0-----------0---|
C|--------0-------------------|---------0-----------0------|
G|----------------------------|----------------------------|
C|---7/9---------7-----3------|---0-----------0------------|

e|----------------------------|------------3---------------|
C|---0--------0-----2---------|---2/4------------4---------|
G|------------------------0---|------------------------0---|
C|---------0-----------0------|---------0-----------0------|
G|----------------------------|----------------------------|
C|---0-----------0------------|---0-----------0------------|

e|----------------------------|----------------------------|
C|---2/4------2-----0---------|---0--------------0---------|
G|------------------------0---|------------0-----------0---|
C|---------0-----------0------|---------0-----------0------|
G|----------------------------|----------------------------|
C|---0-----------0------------|---5-----------5------------|

e|---0------------------------|----------------------------|
C|------0-----------0-----0---|------0-----------0---------|
G|------------0---------------|------------4-----------2---|
C|---------0-----------0------|---------0-----------0------|
G|----------------------------|----------------------------|
C|---5-----------5------------|---0-----------0------------|

e|----------------------------|------------------0---------|
C|------0-----------0---------|---0h2----------------------|
G|------------0-----------0---|------------0-----------0---|
C|---------0-----------0------|---------2-----------2------|
G|----------------------------|---0-----------0------------|
C|---0-----------0------------|----------------------------|

e|----------------------------|------------------0---------|
C|---0h2------0-----2---------|---2\7------7---------------|
G|------------------------0---|------------------------0---|
C|---------2-----------2------|---------0-----------0------|
G|---0-----------0------------|----------------------------|
C|----------------------------|---0-----------0------------|

e|---5--3---------------------|----------------------------|
C|------------4-----3b--------|---0--------------0---------|
G|------------------------0---|------------0-----------0---|
C|---------0-----------0------|---------0-----------0------|
G|----------------------------|----------------------------|
C|---0-----------0------------|---5-----------5------------|

e|---0------------------------|----------------------------|
C|------0-----------0-----0---|------0-----------0---------|
G|------------0---------------|------------4-----------2---|
C|---------0-----------0------|---------0-----------0------|
G|----------------------------|----------------------------|
C|---5-----------5------------|---0-----------0------------|

e|----------------------------|----------------------------|
C|------0-----------0---------|---0h2------------2---------|
G|------------0-----------0---|------------0-----------0---|
C|---------0-----------0------|---------2-----------2------|
G|----------------------------|---0-----------0------------|
C|---0-----------0------------|----------------------------|

e|----------------------------|
C|---2--------2-----2-----2---|
G|----------------------------|
C|---------2-----------2------|
G|---0-----------0------------|
C|----------------------------|


[Verse]

     C
e|----------------------------|----------------------------|
C|---0--------------0---------|---0--------------0---------|
G|------------0-----------0---|------------0-----------0---|
C|---------0-----------0------|---------0-----------0------|
G|----------------------------|----------------------------|
C|---0-----------0------------|---0-----------0------------|

     F
e|----------------------------|----------------------------|
C|---0--------------0---------|---0--------------0---------|
G|------------0-----------0---|------------0-----------0---|
C|---------0-----------0------|---------0-----------0------|
G|----------------------------|----------------------------|
C|---5-----------5------------|---5-----------5------------|
     C
e|----------------------------|----------------------------|
C|------0-----------0---------|------0-----------0---------|
G|------------4-----------2---|------------0-----------0---|
C|---------0-----------0------|---------0-----------0------|
G|----------------------------|----------------------------|
C|---0-----------0------------|---0-----------0------------|

    G
e|------------------0---------|----------------------------|
C|---2------------------------|---0h2------2-----2-----2\--|
G|------------0-----------0---|----------------------------|
C|---------2-----------2------|---------2-----------2------|
G|---0-----------0------------|---0-----------0------------|
C|----------------------------|----------------------------|


[Chorus]

     Am                           G
e|---8--------------8---------|---7--------------7---------|
C|------------0---------------|------------0---------------|
G|------------------------0---|------------------------0---|
C|---------0-----------0------|---------0-----------0------|
G|----------------------------|----------------------------|
C|---9-----------9------------|---7-----------7------------|

     F                            C
e|---5--------------5---------|---0--------------0---------|
C|------------0---------------|------------0---------------|
G|------------------------0---|------------------------0---|
C|---------0-----------0------|---------0-----------0------|
G|----------------------------|----------------------------|
C|---5-----------5------------|---0-----------0------------|

     Am                           G
e|---8--------------8---------|---7--------------7---------|
C|------------0---------------|------------0---------------|
G|------------------------0---|------------------------0---|
C|---------0-----------0------|---------0-----------0------|
G|----------------------------|----------------------------|
C|---9-----------9------------|---7-----------7------------|

     F                            F
e|---5--------------5---------|---5--------------5---------|
C|------------0---------------|------------0---------------|
G|------------------------0---|------------------------0---|
C|---------0-----------0------|---------0-----------0------|  (x2)
G|----------------------------|----------------------------|
C|---5-----------5------------|---5-----------5------------|

     C                            C
e|---3--------------3---------|---3------------------------|
C|------------0---------------|------0-----------0---------|
G|------------------------0---|------------0-----------0---|
C|---------0-----------0------|---------0-----------0------|
G|----------------------------|----------------------------|
C|---0-----------0------------|---0-----------0------------|

     F                            F
e|---5--------------5-----5---|---3h5------------5---------|
C|------------0---------------|------------0---------------|
G|----------------------------|------------------------0---|
C|---------0-----------0------|---------0-----------0------| 
G|----------------------------|----------------------------|
C|---5-----------5------------|---5-----------5------------|

     C                            C
e|---0--------------0---------|---0--------------0---------|
C|------------0---------------|------------0---------------|
G|------------------------0---|------------------------0---|
C|---------0-----------0------|---------0-----------0------|
G|----------------------------|----------------------------|
C|---0-----------0------------|---0-----------0------------|

     F                            G
e|---5--------------5---------|---7--------------7---------|
C|------------0---------------|------------0---------------|
G|------------------------0---|------------------------0---|
C|---------0-----------0------|---------0-----------0------|
G|----------------------------|----------------------------|
C|---5-----------5------------|---7-----------7------------|


[Interlude]
                            
e|---7h8---------5h7----------|---3h5----------------------|
C|----------------------------|------------4-----3b--------|
G|------------0-----------0---|------------------------0---|
C|---------0-----------0------|---------0-----------0------|
G|----------------------------|----------------------------|
C|---0-----------0------------|---0-----------0------------|

e|------------0---------------|----------------------------|
C|---0h2------------2---------|---0--------0-----2---------|
G|------------------------0---|------------------------0---|
C|---------0-----------0------|---------0-----------0------|
G|----------------------------|----------------------------|
C|---0-----------0------------|---0-----------0------------|

e|------------3-----0---------|----------------------------|
C|---0h2----------------------|---0h2------2p0---0---------|
G|------------------------0---|------------------------0---|
C|---------0-----------0------|---------0-----------0------|
G|----------------------------|----------------------------|
C|---0-----------0------------|---0-----------0------------|

e|----------------------------|---0------------------------|
C|---0--------------0---------|------0-----------0---------|
G|------------0-----------0---|------------0-----------0---|
C|---------0-----------0------|---------0-----------0------|
G|----------------------------|----------------------------|
C|---5-----------5------------|---5-----------5------------|

e|----------------------------|----------------------------|
C|------0-----------0---------|------0-----------0---------|
G|------------4-----------2---|------------0-----------0---|
C|---------0-----------0------|---------0-----------0------|
G|----------------------------|----------------------------|
C|---0-----------0------------|---0-----------0------------|

e|------------------0---------|----------------------------|
C|---0h2----------------------|---0h2------0-----2---------|
G|------------0-----------0---|------------------------0---|
C|---------2-----------2------|---------2-----------2------|
G|---0-----------0------------|---0-----------0------------|
C|----------------------------|----------------------------|

e|---------3------------------|---5p3----------------------|
C|---2/4------------4---------|------------4-----3b--------|
G|------------------------0---|------------------------0---|
C|---------0-----------0------|---------0-----------0------|
G|----------------------------|----------------------------|
C|---0-----------0------------|---0-----------0------------|

e|----------------------------|---0------------------------|
C|---0--------------0---------|------0-----------0---------|
G|------------0-----------0---|------------0-----------0---|
C|---------0-----------0------|---------0-----------0------|
G|----------------------------|----------------------------|
C|---5-----------5------------|---5-----------5------------|
     
e|----------------------------|----------------------------|
C|------0-----------0---------|------0-----------0---------|
G|------------4-----------2---|------------0-----------0---|
C|---------0-----------0------|---------0-----------0------|
G|----------------------------|----------------------------|
C|---0-----------0------------|---0-----------0------------|

e|----------------------------|----------------------------|
C|---0h2------------2---------|---2--------------2---------|
G|------------0-----------0---|------------0-----------0---|
C|---------2-----------2------|---------2-----------2------|
G|---0-----------0------------|---0-----------0------------|
C|----------------------------|----------------------------|


[Outro]
                         
e|---7------------------------|---8-----------5------------|
C|------------------0---------|------0-----------0---------|
G|------------7-----------7---|----------------------------|
C|---------0-----------0------|---------0-----------0------|
G|----------------------------|----------------------------|
C|---7-----------7------------|---9-----------5------------|
                         
e|---7--------------7---------|---5--------------3---------|
C|------0-----7---------------|----------------------------|
G|------------------------0---|------------0-----------0---|
C|---------0-----------0------|---------0-----------0------|
G|----------------------------|----------------------------|
C|---7-----------7------------|---5-----------5------------|

e|---0------------------------|---8-----------5------------|
C|------------------0---------|------0-----------0---------|
G|------------0-----------0---|----------------------------|
C|---------0-----------0------|---------0-----------0------|
G|----------------------------|----------------------------|
C|---0-----------7\9----------|---9-----------5------------|
                        
e|---7--------------7---------|---5------------------------|
C|------0-----7---------------|------------------0---------|
G|------------------------0---|------------0-----------0---|
C|---------0-----------0------|---------0-----------0------|
G|----------------------------|----------------------------|
C|---7-----------7------------|---5-----------5------------|

e|---5--------------5---------|---0h3---------0h3----------|
C|------------0-----0---------|----------------------------|
G|------------------------4---|------------4-----------4---|
C|---------0-----------0------|---------0-----------0------|
G|----------------------------|----------------------------|
C|---5-----------5------------|---0-----------0------------|
 
e|---3------------------------|---0h3---------0h3----------|
C|------4-----------4---------|----------------------------|
G|------------0-----------4---|------------4-----------4---|
C|---------0-----------0------|---------0-----------0------|
G|----------------------------|----------------------------|
C|---5-----------5------------|---0-----------0------------|

e|---0h3------5-----3---------|---5--------------5---------|
C|----------------------------|------0-----0---------------|
G|------------------------4---|----------------------------|
C|---------0-----------0------|---------0------------------|
G|----------------------------|----------------------------|
C|---0-----------0------------|---5-----------5-----5\-----|

e|---7--------------5-----5---|---7--------------7---------|---8---|
C|----------------------------|------0---------------------|---0---|
G|------------0---------------|------------7-----------7---|---0---|
C|---------0-----------0------|---------0-----------0------|---0---|
G|----------------------------|----------------------------|---0---|
C|---7-----------5------------|---7-----------7------------|---0---|



************************************

| h  Hammer-on
| p  Pull-off
| b  Bend
| /  Slide up
| \  Slide down

************************************

            
            
Suggest correction
Creating personal tab
Creating personal tab
You can edit any tab online and save it as your Personal.

You can edit, replace or remove any tab part or add personal notes – all changes will be seen only by you.

Personal tabs can be accessed anytime from any device, even offline.
Learn more »
Give kudos to tab author, rate the tab!
1 2 3 4 5
comments
print report bad tab
guest
You may want to rate the tab now too:
select rating
Wanna post a correction for this tab? Suggest correction