Oops, an error
Loading. Please wait.

Surfer King chords

145 views 3 this week
no commentswrite comment
1 2 3 4 5
x 17
add to favorites
×
Save as Personal and add changes to this tab that will be seen only by you. Learn more ›
×
You can save this tab as Personal to edit and correct it or add notes. All changes will be seen only by you. Learn more »
launch autoscroll
font size
0
reset
transpose
0
reset
display chords
guitar tuner
edit
Autoscroll
slow
fast
+/-
esc
set tempo
stop
Strumming
There is no strumming pattern for this song yet. and get +5 IQ
SONG:   SURFER KING
ARTIST: A.A. BONDY
VIDEO:  https://youtu.be/bGqGSfr09dY
TAB BY: DON CZARSKI
EMAIL:  GUITARZAN7@HOTMAIL.COM


NOTE: The song may not be in standard tuning.
      However, i made a chord tab for it that way.
      ALso, I did the INTRO the way I hear it. 
      Feel free to improvise with hammer ons
      and pull offs. This however sounds really
      good to me and is a simplified version and 
      is easy to follow.

  
                  SURFER KING
                  A.A. BONDY

CAPO: 1st FRET

INTRO:

E -----------------------------7------7-
B -5--5-6--5-6-8--5-6-8--5-6-8---5-6-8--
G --------------------------------------
D --------------------------------------
A --------------------------------------
E --------------------------------------

E -------7-------7-------7-------7-------7-
B -5-6-8---5-6-8---5-6-8---5-6-8---5-6-8---
G -----------------------------------------
D -----------------------------------------
A -----------------------------------------
E -----------------------------------------

E -------7-------7-------7-------7-------7-
B -5-6-8---5-6-8---5-6-8---5-6-8---5-6-8---
G -----------------------------------------
D -----------------------------------------
A -----------------------------------------
E -----------------------------------------

   C
E -----------------
B -----------------
G -----------------
D -2-2-2-2-3p2-0---
A -3-3-3-3-------3-
E -----------------

   C
E -----------------
B -----------------
G -----------------
D -2-2-2-2-3p2-0---
A -3-3-3-3-------3-
E -----------------

   C
E -----------------
B -----------------
G -----------------
D -2-2-2-2-3-2-----
A -3-3-3-3---------
E -----------------

   F     C
E ----------
B ----------
G ----------
D -3-2------
A -----5-3--
E ----------


VERSE:

   C
Behind the red door, 
     C
In American skin
  C                   F     C
There is a murder of roses

        C
In the midnight hiss, 
      C
Come cover me there
    C              F       C
For I am electric nothing


CHORUS
Dm
Out on the tide, 
  Dm
Strangers all
      C         C
Are drowning by

Dm
Under eclipse, 
   Dm
I wait for your kiss
          Em
With the beating 
        C   G
Of her all gone

             C     
These idiot hearts

   C
E -----------------
B -----------------
G -----------------
D -2-2-2-2-3p2-0---
A -3-3-3-3-------3-
E -----------------

   C
E -----------------
B -----------------
G -----------------
D -2-2-2-2-3p2-0---
A -3-3-3-3-------3-
E -----------------

   C
E -----------------
B -----------------
G -----------------
D -2-2-2-2-3-2-----
A -3-3-3-3---------
E -----------------

   F     C
E ----------
B ----------
G ----------
D -3-2------
A -----5-3--
E ----------


VERSE:
            C
And no more evil now, 
    C
No horror sound
    C                F     C
No maniac song from tyrant

         C
And the surfer king 
      C
Will show me everything
         C                      F       C
In the great green flash of the evening


CHORUS
Dm
Out on the tide, 
  Dm
Strangers we ride
  C               C
Smoke in our eyes

Dm
Under eclipse, 
   Dm
I wait for your kiss
          Em
With the beating 
        C   G
Of her all gone

             Dm    Dm
These idiot hearts


OUTRO:
C  C  Dm  Dm  C  C  Am  Am  Em  Em  D#m Dm  Dm  C 




            
            
Suggest correction
Creating personal tab
Creating personal tab
You can edit any tab online and save it as your Personal.

You can edit, replace or remove any tab part or add personal notes – all changes will be seen only by you.

Personal tabs can be accessed anytime from any device, even offline.
Learn more »
comments
print report bad tab
guest
You may want to rate the tab now too:
select rating
Wanna post a correction for this tab? Suggest correction