Oops, an error
Loading. Please wait.

Doomsday Robot Army Bass Tab

787 views 1 this week
no commentswrite comment
1 2 3 4 5
please rate
add to favorites
launch autoscroll
font size
0
reset
guitar tuner
Autoscroll
slow
fast
+/-
esc
set tempo
stop
Help us to improve Ultimate-Guitar.com Take our survey!
×
Contributor
Difficulty
choke383 1,865
novice
Band: A Billion Ernies
Song: Doomsday Robot Army
Album: Please Do Not Reveal The Ending
Tabbed by: choke383
Normal Tuning: GDAEB


0:12
G|-----|
D|-----|
A|2/---|
E|-----|
B|-----|

G|------------------------------------|
D|------------------------------------|
A|7---7---7---7----6---6---6---6---6--|
E|--7---7---7---789--6---6---6---78---|x3
B|------------------------------------|

G|-----------------------------------|
D|-----------------------------------|
A|7---7---7---7---6---6---6---6---6--|
E|--7---7---7---7---6---6---6---78---|
B|-----------------------------------|

G|-----------------------------|
D|-----------------------------|
A|7---7---7---7----------------|
E|--7---7---7---7--7--5--3--2--|
B|-----------------------------|


0:40
G|------------------------------------|
D|------------------------------------|
A|7---7---7---7----6---6---6---6---6--|
E|--7---7---7---789--6---6---6---78---|x3
B|------------------------------------|

G|------------------------------------|
D|------------------------------------|
A|7---7---7---7----6---6---6---6---6--|
E|--7---7---7---789--6---6---6---6----|
B|------------------------------------|


1:01
G|--------------------------------------------|
D|-----------------------------6-------6------|
A|5--7-8-7--5--5-6-7-8-7--5-467-7676467-7676--|
E|--------------------------------------------|x3
B|--------------------------------------------|

G|------------------------------|
D|------------------------------|
A|5--7-8-7--5--5-6-7-8-7--5-4---|
E|------------------------------|
B|------------------------------|


1:22
G|--------------------|
D|--------------------|
A|--------------5544--|
E|22-2-00-0--2-2------|x4
B|--------------------|

G|---------------------------|
D|---------------------------|
A|5-5-4-4-4-4-4--------------|
E|--------------0--0---0--0--|
B|---------------------------|


1:40
G|------------------------------------|
D|------------------------------------|
A|7---7---7---7----6---6---6---6---6--|
E|--7---7---7---789--6---6---6---78---|x3
B|------------------------------------|

G|------------------------------------|
D|------------------------------------|
A|7---7---7---7----6---6---6---6---6--|
E|--7---7---7---789--6---6---6---6----|
B|------------------------------------|


2:01
G|--------------------------------------------|
D|-----------------------------6-------6------|
A|5--7-8-7--5--5-6-7-8-7--5-467-7676467-7676--|
E|--------------------------------------------|x4
B|--------------------------------------------|


2:21
G|-----------------------------------------------------|
D|------------------------------------------------7\---|
A|5-----4-----------4-----5-----4-----5----------------|
E|------------0--------------------------2--3--5-------|
B|-----------------------------------------------------|


2:38
G|--------------------|
D|--------------------|
A|--------------5544--|
E|22-2-00-0--2-2------|x4
B|--------------------|

G|-------|
D|3-4----|
A|-------|
E|-------|
B|-------|

G|--------------------|
D|--------------------|
A|--------------5544--|
E|22-2-00-0--2-2------|x4
B|--------------------|

G|---------------------------|
D|---------------------------|
A|5-5-4-4-4-4-4-4-5-4-3-4-3--|
E|---------------------------|
B|---------------------------|


3:12
G|---------------------------------------------------------------------------------|
D|---------------------------------------------------------------------------------|
A|------------------------------4----4----5---------5---------5---------------5-4--|
E|2---------2---------2------------------------5---------5---------5----5----5-----|
B|-----2---------2---------2-------------------------------------------------------|

G|----------------------------------------------------------------------------------|
D|----------------------------------------------------------------------------------|
A|------------------------------3----3--4-5------------------------------------5-4--|
E|2---------2---------2------------------------5---------5---------5----5----5------|
B|-----2---------2---------2------------------------2---------2---------------------|x2

G|-------------------------------------------------------------------|
D|-------------------------------------------------------------------|
A|--------5-4----------4-5-4-3-4-----5-4-3-4-----5-4-3-4-------------|
E|2----5-------------5-----------2-5---------2-5---------5-4-2----2--|
B|-------------------------------------------------------------------|


Any comments, questions or jokes send to style444@hotmail.com
comments
We did not receive enough feedback on this tab! Please rate:
print report bad tab
1 2 3 4 5
I want to post or [tab]
guest
You may want to rate the tab now too:
select rating
Please do not post tabs as comments. Select "correction" instead!