Oops, an error
Loading. Please wait.

The Epidemic Of Unexpected Relapses Tab

version 2
version 2

Whole song

Interactive

567 views 1 this week
no commentswrite comment
1 2 3 4 5
worth learning
x 1
add to favorites
launch autoscroll
font size
0
reset
how to read this tab
guitar tuner
Tab Pro tools
  • play this tab
  • loop segment
  • change instrument
  • show fretboard
  • metronome
Autoscroll
slow
fast
+/-
esc
set tempo
stop
Contributor
Difficulty
Tuning
intermediate
B F# B E G# C#

                                            A Black Rose Burial
                                     The Epidemic of Unexpected Relapses


Tuning-Drop B ( B,F#,B,E,G#,C#)

-------------------21------------------------------21------------|
-19191919----22----------21--19----18--------22----------21--19\-|
-18181818------21----21--------18----17--17----21----21------18\-|
-16161616--19----19----19--16----16----16--19----19----19----16\-|
-----------------------------------------------------------------|
-----------------------------------------------------------------|

----0----0----------------------------------17----|
-----4----4------------------------------17-------|
--------------------------------------------15----|
--------------2-1------------------------15-------|
-1-1--1-1--1--4-3---------------------------------|
-0-0--0-0--0------12345678910111213141516---------|x2,
 . .  . .  .  . . ......................
"You had better be prepared to turn wet and messy." part then..
----------12-10-10-9-9-8-8888--9-8-8888---------|
----9999------7--7-6-7-6-6666--7-6-6666---------|
--------10----7--7-6-7-6-6666--7-6-6666---------|
-4----------------------------------------------|
-1-0--------------------------------------------|
-1-0--------------------------------------------|
 . .          ^           Clean             ^

Clean
-------------------------------------------------|
-------------------------------------------------|
-------------------------------------------------|
------77-------77-------77--8--------------------|
--66----77-66----77-66----77-7-7\----------------|
----77-------77-------77-------8\----------------|

youll know when to palm mute..
-------------------------------------------------------4/--|
--------------------------4/-------------------------------|
-----------------------------------------------------------|
---------4-------------4--------------4-------------4------|
-2-1-1111-1111-2-1-1111--1---2-1-1111-------2-1-1111-1-----|
-3-2-1111-1111-3-2-1111--1---3-2-1111--1111-3-2-1111-1-----|

amount of strumming not included, you can figure it out. Clean..
-5-5---5---------5-3---------------|
-5-5h6-5---------5-3---------------|
-7-7---7---------7-5---------------|
-7-7---7---------8-7---------------|
-5-5---5--x2-----5-3---------------|
-----------------5-3---------------|

not exact amount of strumming..
---------------------------------------------------|
---------------------------------------------------|
-----7---------------------7-----------------------|
-7-8---8-7--x2--8-7----7-8---8-7--x2---12-10--9----|
-5-5-5-5-5------5-3----5-5-5-5-5--------8--5--5----|
-0-0-0-0-0------5-3----0-0-0-0-0 -------8--5--5----|

All Double Picked
-------------------------------------------------------------------|
-----15------15------15------15------18------18------17------17----|
---14--14--14--14--15--15--15--15--19--19--19--19--17--17--17--17--|
-12------12------12------12------15------15------15------15--------|
-------------------------------------------------------------------|
-------------------------------------------------------------------|

All palm muted
------------------------------------------|
------------------------------------------|
------------------------------------------|
-0~---000000-00-00-00-000000--------------|
-0~---000000-00-00-00-000000--------------|
-0~---000000-00-00-00-000000--------------|

-----------------0---------------------------------0------|
-----------------0---------------------------------0------|
-----------------0---------[Porn Excerpt..]--------0------|
---------------------x2-----------------------------------|
-1111110-1111110--------------------------0000000~--------|
-0000000-0000000--------------------------0000000~--------|x2

Clean
-----------------------------------------------------------|
----15-----14--------------------15-14-11-10-15-14-11-10---|
------14-15--12-12-14------------14-15-12-11-14-15-12-11---|
---------------------12-13--x4-----------------------------|
-13--------------------------------------------------------|
--0--------------------------------------------------------|

Clean 
--------------------------------------------------|
----15-----14---------------15-14-11--------------|
------14-15--12-12-14-------14-15-12--------------|
---------------------12-13------------------------|
-13-----------------------------------------------|
--0-----------------------------------------------|

Distorted
-0-----------------------0---------|
-0-----------------------0---------|
-0-----------------------0---------|
-----------------------------------|
---0000000-0000-00000000-----------|
---0000000-0000-00000000-----------|Repeat till fade  out

nice!
comments
We did not receive enough feedback on this tab! Please rate:
print report bad tab
1 2 3 4 5
I want to post or [tab]
guest
You may want to rate the tab now too:
select rating
Please do not post tabs as comments. Select "correction" instead!