Oops, an error
Loading. Please wait.

Drowning Water Ft Kodak Black tab

70 views 30 this week
no commentswrite comment
1 2 3 4 5
3 more votes to show rating
add to favorites
×
Save as Personal and add changes to this tab that will be seen only by you. Learn more ›
×
You can save this tab as Personal to edit and correct it or add notes. All changes will be seen only by you. Learn more »
launch autoscroll
font size
0
reset
how to read this tab
guitar tuner
edit
Autoscroll
slow
fast
+/-
esc
set tempo
stop
About this tab version
Drowning is originally a piano song, with some manipulation to the amount and tonality of notes (so slightly simplified), this song can now be played on guitar. Another note, this is just the piano part that loops during the duration of the original song. Was this info helpful? Yes No
~130 BPM
*Play the intro on repeat through the entirety of the song

[Intro]
e|-------3-------3-------3-------3-------3-------3---4---3---|
B|-----------------------------------------------------------|
G|---5-------5-------5-------5-------5-------5---------------|
D|-----------------------------------------------------------|
A|-----------------------------------------------------------|
E|-----------------------------------------------------------|

e|-------3-------3-------3-------3-------3-------3---4---3---|
B|-----------------------------------------------------------|
G|---4-------4-------4-------4-------4-------4---------------|
D|-----------------------------------------------------------|
A|-----------------------------------------------------------|
E|-----------------------------------------------------------|

e|-------3-------3-------3-------3-------3-------3---4---3---|
B|-----------------------------------------------------------|
G|---3-------3-------3-------3-------3-------3---------------|
D|-----------------------------------------------------------|
A|-----------------------------------------------------------|
E|-----------------------------------------------------------|

e|-------3-------3-------2-------2-------2-------2-------2-------2---|
B|-------------------------------------------------------------------|
G|---1-------1-------1-------1-------1-------1-------0-------0-------|
D|-------------------------------------------------------------------|
A|-------------------------------------------------------------------|
E|-------------------------------------------------------------------|

*****************************************************

Feedback/corrections are much appreciated ;D

The 4th and final bar is a little wierd and I fully
encourage corrections. Everything I tried sounded off
so I just used the sheet music for the 4th bar.

*****************************************************

The following is a replacment for the 4th bar that
also sounds correct, but is not correct by the sheet
music:

e|-------3-------3-------2-------2-------2-------2-------2-------2---|
B|-------------------------------------------------------------------|
G|---2-------2-------2-------2-------2-------2-------1-------1-------|
D|-------------------------------------------------------------------|
A|-------------------------------------------------------------------|
E|-------------------------------------------------------------------|

or also 4th bar
                                  (Change made here) |
                                                     \/
e|-------3-------3-------2-------2-------2-------2-------2-------2---|
B|-------------------------------------------------------------------|
G|---2-------2-------2-------2-------2-------2-------0-------0-------|
D|-------------------------------------------------------------------|
A|-------------------------------------------------------------------|
E|-------------------------------------------------------------------|

            
            
Suggest correction
Creating personal tab
Creating personal tab
You can edit any tab online and save it as your Personal.

You can edit, replace or remove any tab part or add personal notes – all changes will be seen only by you.

Personal tabs can be accessed anytime from any device, even offline.
Learn more »
Give kudos to tab author, rate the tab!
1 2 3 4 5
comments
print report bad tab
guest
You may want to rate the tab now too:
select rating
Wanna post a correction for this tab? Suggest correction