Oops, an error
Loading. Please wait.

Encyclopedia Of Classic Takedowns Bass Tab

393 views 1 this week
no commentswrite comment
1 2 3 4 5
please rate
add to favorites
launch autoscroll
font size
0
reset
guitar tuner
Tab Pro tools
  • play this tab
  • loop segment
  • change instrument
  • show fretboard
  • metronome
×
Best way to learn
"Encyclopedia Of Classic Takedowns"
Autoscroll
slow
fast
+/-
esc
set tempo
stop
Contributor
Difficulty
novice
ENCYCLOPEDIA OF CLASSIC TAKEDOWNS - A.C. Newman
Tabbed By: CSC      Tuning: EADG

Verse 
G|-----------------------------------------------------------------|
D|---------------------------------7-7-7-7---------7-7-7-7---------|
A|-9-9-9-9-7-7-7-7-9-9-9-9-7-7-7-7---------9-9-9-9---------9-9-9-9-|
E|-----------------------------------------------------------------|

Verse 

Pre-Chorus (0:26)
G|----------------------------------------------------------|
D|----------------------------------------------------------|
A|--------7-7------------------7-7--------------------------|
E|-10-10-------9-9-9-9--10-10-------9-9-9-9-----------------|

Verse 
Pre-Chorus

Chorus (0:52)
G|-------------------------------------|
D|-------------------------------------| x4
A|-------------5-5---5-5---7-7---7-7---| 
E|-5-5---5-5---------------------------|

G|-----------------------------|
D|-----------------------------|
A|-----------------------------|
E|-5-5---5-5---5-5---5-5---5/--|

Verse x2       (1:15)
Pre-Chorus     (1:40)
Chorus         (1:48) (slide down at end instead of up)

Bridge (2:10)
G|-----------------------------------------|
D|-----------------------------------------| x2
A|-----------------------------------------|
E|-2>-----0>-----2>-----0>-----5>>---------|
(2:36)
G|-----------------------------------------------------------------|
D|-----------------------------------------------------------------| x2
A|-----------------------------------------------------------------|
E|-2-2-2-2-0-0-0-0-2-2-2-2-0-0-0-0-5-5-5-5-5-5-5-5-5-5-5-5-5-5-5-5-|

Pre-Chorus   (3:03)
Chorus       (3:09)
Verse x2
comments
We did not receive enough feedback on this tab! Please rate:
print report bad tab
1 2 3 4 5
I want to post or [tab]
guest
You may want to rate the tab now too:
select rating
Please do not post tabs as comments. Select "correction" instead!