Oops, an error
Loading. Please wait.

Faceless Graveyard Ballroom Bass Tab

794 views 1 this week
no commentswrite comment
1 2 3 4 5
3 more votes to show rating
add to favorites
launch autoscroll
font size
0
reset
guitar tuner
Autoscroll
slow
fast
+/-
esc
set tempo
stop
Help us to improve Ultimate-Guitar.com Take our survey!
×
A CERTAIN RATIO - FACELESS (GRAVEYARD & BALLROM)
ALBUM: EARLY (2002)
BASSIST: JEREMY KERR

INTRO (x4)

E --------------------------------------|
A ---5---5-----5--x---x---5-------------|
D --------------------------------------|
G -----6---8----6---6---6---------------|

VERSE

E ----------------5--7---7-6-5----------|
A ---9-9--7--9-9-------5----------------|
D --------------------------------------|
G --------------------------------------|

VARIATION

E ----------------5--7---5-6-7----------|
A ---9-9--7--9-9-------5----------------|
D --------------------------------------|
G --------------------------------------|


VARIATION 2

E ----------------5--7------------------|
A ---9-9--7--9-9-------5---7-7----------|
D --------------------------------------|
G --------------------------------------|

BRIDGE           (x4)

E ---5---7-7-7-7-----5---3-3-3-3--------|
A --------------------------------------|
D --------------------------------------|
G --------------------------------------|

ACR=MAGNIFICENT BAND OF '80

TABBED BY JAH WOBBLE IS GOD
Suggest correction
Give kudos to tab author, rate the tab!
1 2 3 4 5
comments
print report bad tab
guest
You may want to rate the tab now too:
select rating
Wanna post a correction for this tab? Suggest correction