Oops, an error
Loading. Please wait.

Shack Up Bass Tab

version 1
version 1

Whole song

1,566 views 1 this week
no commentswrite comment
1 2 3 4 5
3 more votes to show rating
add to favorites
launch autoscroll
font size
0
reset
guitar tuner
Autoscroll
slow
fast
+/-
esc
set tempo
stop
Help us to improve Ultimate-Guitar.com Take our survey!
×
A CERTAIN RATIO - SHACK UP
bassist: JEREMY KERR

INTRO

E ------0--0--0--0--0--0--0---------------

VERSE/CHORUS

E --0-----------------0------------------------|
A -----3-4-3----5-7------3-4-3----5-7----------|
D ------------x-----------------x--------------|
G ---------------------------------------------|


BRIDGE

E ----------------0------------0---------------|
A -----5-----3-----------5---3-----------------|
D ---------------------------------------------|
G ---------------------------------------------|


GRRREAT BAND
JAH WOBBLE IS GOD!

http://www.acrmcr.com/
Suggest correction
Give kudos to tab author, rate the tab!
1 2 3 4 5
comments
print report bad tab
guest
You may want to rate the tab now too:
select rating
Wanna post a correction for this tab? Suggest correction