Oops, an error
Loading. Please wait.

An Offer You Cant Refuse Bass Tab

435 views 1 this week
no commentswrite comment
1 2 3 4 5
please rate
add to favorites
launch autoscroll
font size
0
reset
guitar tuner
Autoscroll
slow
fast
+/-
esc
set tempo
stop
Help us to improve Ultimate-Guitar.com Take our survey!
×
Contributor
iheart_a7x 3,937
One of my favorite albums I must say.  Every song was ear-transcribed by me (iheart_a7x)

Album: An Offer You Can't Refuse (2004)
Artist: A Change Of Pace
Tabbed by: Valerie L.
E-mail: iloled@yahoo.com

Album contents:
1. Loose Lips Sink Ships
2. Death Do Us Part
3. Every Second
4. Asleep At The Wheel
5. December
6. Know One Knows
7. Home Is Where The Heart Is
8. A Farewell To A Friendship
9. Chippie
10. Goodbye For Now
11. Queen Of Hearts


-------------------------------------------------------------------------------
			 1. Loose Lips Sink Ships 
-------------------------------------------------------------------------------
Tabbed By: Valerie L. 
e-mail: v_vengeance6661@yahoo.com
Tuning: Drop D

Intro
G|------------------------|
D|------------------------|
A|------------------------|
D|-0~----0~----0~--00000--|

G|-------------------------------------|
D|-------------------------------------|
A|-------------------------------------|
D|-0-0-888-0-0-888-0-0-888-10101010-10-| x2

Verse
G|---------------|   |--------------|
D|---------------|   |--------------|
A|---------------|   |-877-877-8p7--|
D|-0~--8~--10~---|x2 |--------------|

Pre-Chorus
G|----------------------------------------------------------------------|
D|----------------------------------------------------------------------|
A|----------------------------------------------------------------------|
D|-0000000000000000-888888888888888-0000000000000000-1010101010101010-10|

Chorus
G|----------------------------------------|
D|----------------------------------------|
A|----------------------------------------|
D|8888888-101010101010-0000-0-00000-0-0-0-|x4

Intro
G|-------------------------------------|
D|-------------------------------------|
A|-------------------------------------|
D|-0-0-888-0-0-888-0-0-888-10101010-10-| x2

whole verse x1
Pre-Chorus x1
Chorus x4

Bridge
G|--------------------------------------------------------------|   |------|
D|--------------------------------------------------------------|   |------|
A|--------------------------------------------------------------|   |------|
D|33>-8888888888888888-0000000000000000-8888888888888-1010101010|x2 |0~-0~-|

Chorus x3

breakdown:
G|-----------------------|
D|-----------------------|
A|-----------------------|
D|000-888-000-888-101010-| x4

Intro
G|-------------------------------------|
D|-------------------------------------|
A|-------------------------------------|
D|-0-0-888-0-0-888-0-0-888-10101010-10-| 

2. Death Do Us Part
Tabbed by: Valerie L
e-mail: v_vengeance6661@yahoo.com

follow the drums for the rhythm

Intro:
G|------------------------------|   
D|------------------------------|   
A|------------------------------|   
D|-0(x14)-4(x14)-0(x14)-4(x14)--|

Verse:
G|-----------------------------------|   
D|-----------------------------------|   
A|-----------------------------------|   
D|-44-00-7-77-7-7-77-7-2-22-2-2-22-2-| x2

Pre-Chorus
G|----------------------------------|   
D|----------------------------------|   
A|-----------------77777777777-5554-|   
D|-000-444-000-777------------------| x2

Chorus
G|--------------------------|   
D|--------------------------|   
A|--------------------------|   
D|-0(x8)-2(x8)-4(x8)-7(x8)--| x2

After chorus
G|------------------------|   
D|------------------------|   
A|------------------------|   
D|--4(x14)-0(x14)-4(x14)--|

Verse
G|-------------------------|--------------------------|
D|-------------------------|--------------------------|
A|-------------------------|--------------------------|   
D|-44-00-77777777-22222222-|-44-00-77777777-22-2-22-2-|

Pre-Chorus x2

Chorus x2

Bridge
G|-----------------------------------------|   
D|-----------------------------------------|   
A|-----------------------------------------|   
D|-222-444-444-222-444-222-444-444-222-4~--| x2

Chorus x4

then
G|-----------------------------------|   
D|-----------------------------------|   
A|--------------------------------0~-|   
D|--44-00-44-00-7777777-222222222----|

-------------------------------------------------------------------------------
			      3.Every Second 
-------------------------------------------------------------------------------
Tabbed By: Valerie L
e-mail: v_vengeance6661@yahoo.com
Tuning: Drop D

Intro
G|-------------------------------------------------|   |-------|
D|-------------------------------------------------|   |-------|
A|-------------------------------------333333333333|   |-------|
D|-55555555555-00000000000-22222000000-------------|x2 |--0~---|

Verse
G|------------------------------------------------------------------|
D|------------------------------------------------------------------|
A|---------------------------------------------------333333333333333|
D|5555555555555555-0000000000000000-2222222200000000----------------|

Pre-Chorus "And all these tears and pain.."
G|-------------------------------------------------------|
D|-------------------------------------------------------|
A|--------------------------------3-33-33333-3-3333333-3-|
D|-022222222222222-55555555555555------------------------|

Chorus "I'll remember every second.."
G|-------------------------------------------------|    |-------|
D|-------------------------------------------------|    |-------|
A|-------------------------------------333333333333|    |-------|
D|-55555555555-00000000000-2222000000--------------| x2 |-5~----|

Verse x1
Pre-Chorus x1
Chorus x2 

Bridge "Don't worry.."
G|----------------------------------------------------------|
D|----------------------------------------------------------|
A|-------------3~----------------------------3333333333333--|
E|-5~--0~--2~------5555555-00000000-22220000----------------|

Chorus x3

Outro
G|-----------------|
D|-----------------|
A|-------------3~--|
E|-5~--0~--2~------|

-------------------------------------------------------------------------------
		  4. Asleep At The Wheel - A Change Of Pace
-------------------------------------------------------------------------------
Tabbed By: Valerie L
e-mail: v_vengeance6661@yahoo.com
Tuning: Drop D

Intro
G|---------------------|
D|---------------------|
A|-555-5h7-777-33-000--|
D|---------------------| x4

Verse
G|--------------------------|
D|--------------------------|
A|--------------------------|
E|-00-3-0-2-00-5-00-3-2h3p2-| x2

Pre-Chorus
G|---------------------|
D|---------------------|
A|-555-5h7-777-33-000--|
D|---------------------| x4

Chorus
G|-------------------------------------------------------------------|
D|-------------------------------------------------------------------|
A|-----------------------------------------------------------333333--|
D|-000000-88888888-33333-5555555555-0000000-8888888-33333333---------| x2

Verse
G|-------------|
D|-------------|
A|-------------|
D|-0~-----000--|

Pre-Chorus x4
Chorus x2

Bridge
G|---------------------|
D|---------------------|
A|---------------------|
D|-0000-00000-0-0-0-0--| x4 

G|--------------------------|
D|--------------------------|
A|--------------------------|
D|-00-3-0-2-00-5-00-3-2h3p2-| x4

G|--------------------------------------------------------------------------------|
D|--------------------------------------------------------------------------------|
A|--------------------------1-00-100-1-00-1-00-1-00-3-00-3-00-3-00-3-00-5-00-5-00-|
D|-3-00-3-00-3-00-3-00-3-00-------------------------------------------------------|

Chorus x2
Intro x4

-------------------------------------------------------------------------------
			   5. December - A Change of Pace
-------------------------------------------------------------------------------

Tabbed By: Valerie L.
e-mail: v_vengeance6661@yahoo.com
Tuning: standard

Intro
G|-----------------------------------|
D|-----------------------------------|
A|-----------------------------------|
E|0000000-0-2222222-2-4444444-4-0~---|

Verse
G|-----------------|
D|-----------------|
A|-2~--------------|
E|-----0~--4~--0~--|

Pre-Chorus
G|------------------------------------------------------------------------|
D|------------------------------------------------------------------------|
A|-222222222222222--------------------------------------------------------|
E|-----------------000000000000000-44444444444444444444444444444444-0~---0|

Chorus
G|-----------------------------------------------------------|
D|-----------------------------------------------------------|
A|111111111111-222222222222222-------------------------------|
E|-----------------------------00000000000000000000000000000-| x2

Verse x1
Pre-Chorus x1
Chorus x2

Bridge
G|---------------------------------|   |-------------------------------|
D|---------------------------------|   |-------------------------------|
A|---------------------------------|   |-------------------------------|
E|-444-444-444-444-000000000000000-|x2 |444-444-444-444-000-000-000-000|

G|---------------------------------| |-------------------------------|
D|---------------------------------| |-------------------------------|
A|---------------------------------| |-------------------------------|
E|-444-444-444-444-000000000000000-| |444-444-444-444-000-000-000-000|

G|---------------------------------------------| |--------------|
D|---------------------------------------------| |--------------|
A|---------------------------------7777777777-7| |--------------|
E|-444-444-444-444-000000000000000-------------| |-00000000-0---|

Chorus x2

Outro
G|-------------------------------|    |----------------------|
D|-------------------------------|    |----------------------|
A|-------------------------------|    |----------------------|
E|444-444-444-444-000-000-000-000| x3 |-444-444-444-444-0~---|

-------------------------------------------------------------------------------
			 6.  Know One Knows - A Change Of Pace
-------------------------------------------------------------------------------
Tabbed By: Valerie L
e-mail: v_vengeance6661@yahoo.com
Tuning: Drop D

Intro
G|--------------------------------|
D|--------------------------------|
A|--------------------------------|
D|000-000-0-888-0-000-0-00-101010-| x2

Verse
G|------------------------|
D|------------------------|
A|------------------------|
D|-000-0-000-0-888-8-888-8| x4

Chorus
G|---------------------------------------------------------------------------|
D|---------------------------------------------------------------------------|
A|---------------------------------------------------------------------------|
D|-88888888-0000000000-88888888-00000000-88888888-000000000-8888887-3333-2222|

Verse
G|------------------------|
D|------------------------|
A|------------------------|
D|-000-0-000-0-888-8-888-8| x4

Bridge
G|--------------------------------------------------------------------------------------|
D|--------------------------------------------------------------------------------------|
A|--------------------------------------------------------------------------------------|
D|-0-00000-8888888-10101010-00000-0-33333-55555-0000-0-10101010-8888-0000-0-555555-33333|

Verse x4
Chorus x2
Intro x2

-------------------------------------------------------------------------------
	           7. Home Where The Heart Is - A Change Of Pace
-------------------------------------------------------------------------------
Tabbed By: Valerie L. 
e-mail: v_vengeance6661@yahoo.com
Tuning: Drop D

Intro
G|---------------------------------------------------------------------|
D|---------------------------------------------------------------------|
A|-3333333333333-3-3-3333333333333-3-3-00000000000-0-0-00000000000-0-0-|
D|---------------------------------------------------------------------| 

Verse
G|---------------------------------------|
D|---------------------------------------|
A|-3-33-3-3-33-3-33-3-0-00-0-0-0-00-0-00-|
D|---------------------------------------|

G|--------------4h5p4---|   |------------4h5p4----|
D|------------5-------5-|   |----------5-------5--|
A|-3333333333-----------|   |-00000000------------|
D|----------------------|x2 |---------------------|x2

Pre-Chorus
G|-----------------|
D|-----------------|
A|-----------------|
D|-33-55-77777777--| x4

Chorus
G|-----------------------------------------------------------------|
D|-----------------------------------------------------------------|
A|-333333-2222222--------------------------------------------------|
D|---------------333333333333-3/77-7-77-7-55-5-55-5-33333333333333-| 

G|----------------------------------------------------------------|
D|----------------------------------------------------------------|
A|---------------------33333333333333-----------------------------|
D|-3/7777777-3333333333---------------77777-5555555-3333333333333-| 

Repeat whole Verse
Pre-Chorus x4
Chorus x1

Bridge
G|-------------------|
D|-------------------|
A|-3~-2~-------------|
D|--------23~--23~---| x4

G|---------------------------------------------------------|
D|---------------------------------------------------------|
A|-33333333333333-333333333333-000000000000-00000000000000-|
D|---------------------------------------------------------| 

Chorus x1

8. Farewell To Friendship, acoustic no bass.

-------------------------------------------------------------------------------
			    9.Chippie - A Change Of Pace
-------------------------------------------------------------------------------
Tabbed By: Valerie L
e-mail: v_vengeance6661@yahoo.com
Tuning: Drop D

Intro
G|-------------------------------------|    |-------|
D|-------------------------------------|    |-------|
A|----------55555555-00000000-11111111-|    |-------|
D|-33333333----------------------------| x2 |---3~--|

Verse
G|--------------------------------------------------------------|
D|--------------------------------------------------------------|
A|-00000000-1111111-----------55555-5-5555-0000-0-000-11-111111-|
D|------------------3333-3333-----------------------------------|

Pre-Chorus
G|--------------------------|
D|--------------------------|
A|-------555-5--------------|
D|-333-3-------777-7-888-8--| x2

Chorus
G|-------------------------------------|------------------------|
D|-------------------------------------|------------------------|
A|55555555-33333333----------11111111--|-5555555-33333333-------|
D|------------------33333333-----------|------------------333-3-|

Intro x2
Verse 
G|-------------------------------------------------------|
D|-------------------------------------------------------|
A|-00000000-1111111-----------55555-5-5555-0000-0-000-1~-|
D|------------------3333-3333----------------------------|

Pre-Chorus x2
Chorus x1

bridge
G|--------------------------------------|
D|--------------------------------------|
A|----------55555555-00000000-11111111--|
D|-33333333-----------------------------|x2

Outro
G|-------------------------------------|
D|-------------------------------------|
A|-55555555-11111111----------33333333-|
D|-------------------33333333----------| x4

-------------------------------------------------------------------------------
			    10. Goodbye For Now - ACOP
-------------------------------------------------------------------------------
Tabbed By: Valerie L
e-mail: v_vengeance6661@yahoo.com
Tuning: Drop D

Intro
G|--------------------------------------------------------------|
D|--------------------------------------------------------------|
A|-3-333-333333-0-0000000000000---------------------------------|
E|------------------------------5-55555555555555-33333333-2h3p2-|


Verse
G|--------------------------------------------------|
D|--------------------------------------------------|
A|-3-333-333333-0-0000000000000------------------3~-|
E|------------------------------5-55555555555555----|

G|----------------------------------------------------------------|
D|----------------------------------------------------------------|
A|-3-333-333333-0-0000000000000-----------------------------------|
E|------------------------------5-55555555555555-33333333-23-5-3-2|

Chorus
G|-----------------------------------------------------------------|
D|-----------------------------------------------------------------|
A|-3-333-333333-0-0000000000000------------------------------------|
E|------------------------------5555555555555555-3333333333333333--|

-------------------------------------------------------------------------------
			11. Queen of Hearts - A Change Of Pace
-------------------------------------------------------------------------------
Tabbed By: Valerie L.
e-mail: v_vengeance6661@yahoo.com
Tuning: Drop D

Intro
G|----------------------------------------------------------|
D|----------------------------------------------------------|
A|-------------555555555555----------------3333333333333333-|
D|-555555555555------------2222222222222222-----------------|x2

Verse
G|-------------------------------------------------------------------|
D|-------------------------------------------------------------------|
A|----------------5555555555555555-7777777777777777-3333333333333333-|
D|5555555555555555---------------------------------------------------|

G|-----------------------------------------------------------------|
D|-----------------------------------------------------------------|
A|----------------5555555555555555-7777777777777777-22333222333223-|
D|5555555555555555-------------------------------------------------|

Pre-Chorus
G|--------------------------------------------------------------|
D|--------------------------------------------------------------|
A|777777777777777-5555555555555555-333333333333333--------------|
D|-------------------------------------------------5555-44-44-44|

G|--------------------------------------------------------------------------------|
D|--------------------------------------------------------------------------------|
A|7777777777777777-555555555555555-00000000000-0-233333333333333333-22-33-22-333-3|
D|--------------------------------------------------------------------------------|

Chorus
G|------------------------------------------------------------------|
D|------------------------------------------------------------------|
A|-----------------2222222222222222----------------3333333333333333-|
D|5555555555555555-----------------2222222222222222-----------------|x2

Verse
G|-----------------------------------------------------|
D|-----------------------------------------------------|
A|----------------5555555555555555-7777777777777777-3~-|
D|5555555555555555-------------------------------------|

G|-----------------------------------------------------------------|
D|-----------------------------------------------------------------|
A|----------------5555555555555555-7777777777777777-22333222333223-|
D|5555555555555555-------------------------------------------------|

pre-Chorus x1
Chorus x2

Bridge play the chorus 4x
Chorus x4


Hope you enjoy! 
comments
We did not receive enough feedback on this tab! Please rate:
print report bad tab
1 2 3 4 5
I want to post or [tab]
guest
You may want to rate the tab now too:
select rating
Please do not post tabs as comments. Select "correction" instead!