Oops, an error
Loading. Please wait.

How To Rape A Country Tab

version 1
version 1

Whole song

Interactive

1,392 views 1 this week
no commentswrite comment
1 2 3 4 5
2 more votes to show rating
add to favorites
launch autoscroll
font size
0
reset
how to read this tab
guitar tuner
Autoscroll
slow
fast
+/-
esc
set tempo
stop
Help us to improve Ultimate-Guitar.com Take our survey!
×
Author
This songs relatively easy, i didnt tab a "solo" cuz it's just messing around in D minor 
a wah pedal, just have fun with it, the intro's a little squirrely with some offbeat 
hits, just listen to the song, i didn't tab every open d chord

Intro
E--------------------------------------------------------------------------|
B--------------------------------------------------------------------------|
G--------------------------------------------------------------------------|
D----0--0--5--3--0--0--0--8--7--5-------INSERT CUTE------------------------|
A----0--0--5--3--0--0--0--8--7--5-----LITTLE DESCENDING RUN HERE-----------|
D----0--0--5--3--0--0--0--8--7--5------------------------------------------|

Verse
E--------------------------------------------------------------------------------|
B--------------------------------------------------------------------------------|
G--------------------------------------2ND TIME PLAY SLOWER----------------------|
D----0--3--5--0--5--7--8--7--0--3--5-0----5-7--8---------------------------------|
A----0--3--5--0--5--7--8--7--0--3--5-0----5-7--8---------------------------------|
D----0--3--5--0--5--7--8--7--0--3--5-0----5-7--8---------------------------------|

PRE-CHORUS

E-------------------------------------------------------------|
B-3-----------------------8-----11----------------------------|
G-2-----------------------7-----10----------------------------|
D-0-----------------------5-----8-----7-----------------------|
A-0-(LET EACH CHORD RING)-5-----8-----7-----------------------|
D-0-----------------------5-----8-----7-----------------------|

CHORUS
E------------------------------------------------------------------------------------|
B------------------------------------------------------------------------------------|
G------7-7-7-7--9-9-10-10------------------------------------------------------------|
D-8-------------------------8--------------------------------------------------------|
A-8----5-5-5-5--7-7-8---8---8-------3-3-3----5-5-5-----------------------------------|
D-8----0-0-0-0--0-0-0---0---8-------3-3-3----5-5-5-----------------------------------|
  ^STRUM                    ^STRUM

THEN INTRO AGAIN, THEN VERSE. THEN...

BRIDGE (IT HELPS TO HAVE A WAH HERE TOO)

E-----------------------------------------------------------------------|
B--------------------------AFTER A FEW TIMES THROUGH--------------------|
G---------------------LEAD GUITAR DOES LITTLE D MINOR SOLO--------------|
D-0-0-0-0-0-0-0-3-5-3---------------------------------------------------|
A-0-0-0-0-0-0-0-3-5-3---------------------------------------------------|
D-0-0-0-0-0-0-0-3-5-3---------------------------------------------------|

E-------------------------------------------------------------|
B--THE PRECHORUS IS PLAYED TO BUILD UP------------------------|
G----THEN WITH BIG HITS ON-3 AND 5----------------------------|
D-------LIKE SO-----------------------------3-3-3-5-5-5-------|
A-------------------------------------------3-3-3-5-5-5-------|
D-------------------------------------------3-3-3-5-5-5-------|

 THE VERSE PARTS REPEAT TWICE, AND THEN THE INTRO AND THEN THE SONGS OVER!

ENJOY! I KNOW I DID, IF THERE'S ANY PROBLEMS IM SORRY, BUT YOU'LL FIGURE IT OUT, EMAIL 
THERE'S A PROBLEM
SMART_BOI12@YAHOO.COM
Suggest correction
Give kudos to tab author, rate the tab!
1 2 3 4 5
comments
print report bad tab
guest
You may want to rate the tab now too:
select rating
Wanna post a correction for this tab? Suggest correction