Oops, an error
Loading. Please wait.

Take Care Tab

version 1
version 1

Whole song

Interactive

3,856 views 1 this week
no commentswrite comment
1 2 3 4 5
x 4
add to favorites
launch autoscroll
font size
0
reset
how to read this tab
guitar tuner
Autoscroll
slow
fast
+/-
esc
set tempo
stop
Help us to improve Ultimate-Guitar.com Take our survey!
×
Author
Difficulty
intermediate
intro (repeat twice*)
(lead)
e ---------15--------------15------------------------------|
B -10--13------13------13------10--10-10-10-10-10-10-10----|
G -----------------12--------------------------------------|
D ---------------------------------------------------------|
A ---------------------------------------------------------|
E ---------------------------------------------------------|

(rythmn)
e ---------------------------------------------------------|
B ---------------------------------------------------------|
G ---------------------------------------------------------|
D -7--7--7--7------5---5---5---3--3--3--3--3--3--3---------|
A -7--7--7--7------5---5---5---3--3--3--3--3--3--3---------|
E -7--7--7--7------5---5---5---3--3--3--3--3--3--3---------|

(lead)
e ---------------------------------------------------------|(2x)
B -14-14-14-14-14-12-12-12-12-12-12------------------------|
G ---------------------------------------------------------|
D ---------------------------------------------------------|
A ---------------------------------------------------------|
E ---------------------------------------------------------|

(rythmn)
e ---------------------------------------------------------|
B ---------------------------------------------------------|
G -5--5--5--5--5-------------------------------------------|
D -5--5--5--5--5--7--7--7--7--7--7-------------------------|
A -3--3--3--3--3--7--7--7--7--7--7-------------------------|
E ----------------7--7--7--7--7--7-------------------------|


verse
e ---------------------------------------------------------|
B ---------------------------------------------------------|
G ---------------------------------------------55----------|
D -22-33---44-33---22-33---44-33---(repeat-22--xx----------|
A -22-33---44-33---22-33---44-33---as much)22--33----------|
E -22-33---44-33---22-33---44-33-----------22--------------|

pre chorus
e ---------------------------------------------------------|
B ---------------------------------------------------------|
G ---------------------------------------------------------|
D -55--77--33----------------------------------------------|
A -55--77--33----------------------------------------------|
E -55--77--33----------------------------------------------|

chorus
e -------------------------------------------------------------|
B -------------------------------------5--5--5--5-5------------|
G -------------------------------------5--5--5--5-5------------|
D --7--7--7--7--7--7----3--3--3--3--3--3--3--3--3-3-5--5--5--5-|
A --7--7--7--7--7--7----3--3--3--3--3---------------5--5--5--5-|
E --7--7--7--7--7--7----3--3--3--3--3---------------5--5--5--5-|
Suggest correction
comments
print report bad tab
guest
You may want to rate the tab now too:
select rating
Wanna post a correction for this tab? Suggest correction