Oops, an error
Loading. Please wait.

Ester tab

109 views 1 this week
no commentswrite comment
1 2 3 4 5
3 more votes to show rating
add to favorites
×
Save as Personal and add changes to this tab that will be seen only by you. Learn more ›
×
You can save this tab as Personal to edit and correct it or add notes. All changes will be seen only by you. Learn more »
launch autoscroll
font size
0
reset
how to read this tab
guitar tuner
edit
Autoscroll
slow
fast
+/-
esc
set tempo
stop
[Chords]
C      032010
Am     x02210
G      320003
F/C    x3321x
F      133211
F9     131213

[Verse]
    We   can  talk, we  can    walk, we  can  sleep  in  the   rain, we  can 
e|--------------------0----------------0--------------0----------------0--------|
B|--------------------------1----------------1--------------1----------------1--|
G|-----------------0-----0----------0-----0--------0-----0----------0-----0-----|
D|--------0--------------------0h2-----------------------------0h2--------------|
A|--3-----------3-------------------------------3-------------------------------|
E|------------------------------------------------------------------------------|

  fight, we  can  scream, we could cure all  this  pain, but  for
e|--------0----------------0--------------0----------------0--------------------|
B|--------------1----------------1--------------1----------------0--------------|
G|-----2-----2----------2-----2--------2-----2----------2-----0-----------------|
D|-----------------0h2-----------------------------0h2--------------------------|
A|--0-------------------------------0-------------------------------------------|
E|------------------------------------------------------------------------------|

   what?                     For you     to    walk
e|--------3--------------3--------------3--------------3------------------------|
B|--------------0--------------0--------------0--------------0------------------|
G|-----0-----0--------0-----0--------0-----0--------0-----0---------------------|
D|------------------------------------------------------------------------------|
A|------------------------------------------------------------------------------|
E|--3--------------3--------------3--------------3------------------------------|

  away,               like       before?              I'll  set
e|--------1--------------1--------|--------3--------------3---------------------|
B|--------------1--------------1--|--------------0--------------0---------------|
G|-----2-----2--------2-----2-----|-----0-----0--------0-----0------------------|
D|--------------------------------|---------------------------------------------|
A|--------------------------------|---------------------------------------------|
D|--1--------------1--------------|--3--------------3---------------------------|

  fire  to  the   hills  and I'll  build  my own   gun,  I'll  hold
e|--------0----------------0--------------0----------------0--------|
B|--------------1----------------1--------------1----------------1--|
G|-----0-----0----------0-----0--------0-----0----------0-----0-----|
D|-----------------0h2-----------------------------0h2--------------|
A|--3-------------------------------3-------------------------------|
E|------------------------------------------------------------------|

   on   to  the thought that we're bigger than the sun, and  the
e|--------0----------------0--------------0----------------0--------------------|
B|--------------1----------------1--------------1----------------0--------------|
G|-----2-----2----------2-----2--------2-----2----------2-----0-----------------|
D|-----------------0h2-----------------------------0h2--------------------------|
A|--0-------------------------------0-------------------------------------------|
E|------------------------------------------------------------------------------|

   moon,                and  the stars that are  in      your
e|--------3--------------3--------------3--------------3------------------------|
B|--------------0--------------0--------------0--------------0------------------|
G|-----0-----0--------0-----0--------0-----0--------0-----0---------------------|
D|------------------------------------------------------------------------------|
A|------------------------------------------------------------------------------|
E|--3--------------3--------------3--------------3------------------------------|

   eyes               hold   me     down
e|--------1--------------1--------|--------3--------------3---------------------|
B|--------------1--------------1--|--------------0--------------0h1-------------|
G|-----2-----2--------2-----2-----|-----0-----0--------0-----0------------------|
D|--------------------------------|---------------------------------------------|
A|--------------------------------|---------------------------------------------|
D|--1--------------1--------------|--3--------------3---------------------------|

e|--------3----------------3--------|
B|--------------1p0--------------0--|
G|-----0-----0----------0-----0-----|
D|----------------------------------|
A|----------------------------------|
E|--3----------------3--------------|

[Chorus]
    Oooooooooohh   Oooooooooohh   Ooooooooooohh  Oooooooooooh
e|--------------------------------------0--------------3-----------|
B|--------1--------------3--------------------1--------------1-----|
G|--------------2--------------2-----------2--------------2--------|
D|-----3-----3--------3-----3--------3--------------3--------------|
A|-----------------------------------------------------------------|
E|--1--------------1--------------1--------------1-----------------|

 So sell  me  a    river        that I  can  swim   up
e|--------------------------------|--------------------------------|
B|--------1--------------1--------|--------1--------------1--------|
G|--------------2--------------2--|--------------0--------------0--|
D|-----2-----2--------2-----2-----|-----2-----2--------2-----2-----|
A|--0--------------0--------------|--3--------------3--------------|
E|--------------------------------|--------------------------------|

    Oooooooooohh   Oooooooooohh   Ooooooooooohh  Oooooooooooh,  Please
e|--------------------------------------0--------------3-----------|
B|--------1--------------3--------------------1--------------1-----|
G|--------------2--------------2-----------2--------------2--------|
D|-----3-----3--------3-----3--------3--------------3--------------|
A|-----------------------------------------------------------------|
E|--1--------------1--------------1--------------1-----------------|

  tell  me   a   story          that I  can   live  in  
e|--------0--------------0--------|--------0--------------0--------|
B|--------------1--------------1--|--------------1--------------1--|
G|-----2-----2--------2-----2-----|-----0-----0--------0-----0-----|
D|--------------------------------|--------------------------------|
A|--0--------------0--------------|--3--------------3--------------|
E|--------------------------------|--------------------------------|

   Over      and  over            again
e|--------3--------------3--------|-----------1-----------------1-----------------1--------|
B|--------------0--------------0--|-----------------1-----------------1-----------------1--|
G|-----0-----0--------0-----0-----|-----2-----------------2-----------------2--------------|
D|--------------------------------|--------3-----3-----------3-----3-----------3-----3-----|
A|--------------------------------|--------------------------------------------------------|
E|--3--------------3--------------|--1-----------------1-----------------1-----------------|

e|---------|
B|---------|
G|---------|
D|---------|
A|---------|
E|----3----|

[Verse]
           C
I  could  fall  I  could  stall  I  could  give  up  the  dream,
           Am
I  can’t  breath  I  can’t  feel  it’s  not  as  easy  as  it  seems,
          G                                  F/C
To  lay  down,  let  the  waves  wash  me  ashore,
            G
Make  me  clean

[Chorus]
  F                F9
Oooh  Oooh  Oooh  Oooh
     Am                       C
So  sell  me  a  river  that  I  can  swim  up, 
           G                          F/C
Whilst  holding  your  life  in  my  hands, 
  Am                       C   
Feeling  my  own  feet  dragging  me  down, 
          G                          F/C
I  just  hope  I  can  save  myself  now, 
         Am                       C
Please  tell  me  a  story  that  I  can  live  in, 
           G                F/C
Live  in  over  and  over  again

[Instrumental]
C   Am   G   F/C   G

[Chorus]
  F                F9
Oooh  Oooh  Oooh  Oooh
     Am                       C
So  sell  me  a  river  that  I  can  swim  up, 
  F                F9
Oooh  Oooh  Oooh  Oooh
            Am                        C
I  keep  feeling  my  own  hands  dragging  me  out, 
      G                           F/C
I  believe  I  can  save  myself  now, 
         Am                       C
Please  tell  me  a  story  that  I  can  live  in, 
           G                 F/C
Live  in  over  and  over  again, 
F/C                G
Over  and  over  again

[Outro]
   Oooooooooohh   Oooooooooohh   Ooooooooooohh  Oooooooooooh
e|--------------------------------------0--------------3-----------|
B|--------1--------------3--------------------1--------------1-----|
G|--------------2--------------2-----------2--------------2--------|
D|-----3-----3--------3-----3--------3--------------3--------------|
A|-----------------------------------------------------------------|
E|--1--------------1--------------1--------------1-----------------|

 So sell  me  a   story        that  I  can  live   in       live in
e|--------0--------------0--------|--------0--------------0--------|
B|--------------1--------------1--|--------------1--------------1--|
G|-----2-----2--------2-----2-----|-----0-----0--------0-----0-----|
D|--------------------------------|--------------------------------|
A|--0--------------0--------------|--3--------------3--------------|
E|--------------------------------|--------------------------------|

   Over     and   over           again
e|--------3--------------3--------|-------|
B|--------------0--------------0--|-------|
G|-----0-----0--------0-----0-----|-------|
D|--------------------------------|-------|
A|--------------------------------|-------|
E|--3--------------3--------------|---1---|

************************************

| x   Dead note
| h   Hammer-on
| p   Pull-off

************************************

            
            
Suggest correction
Creating personal tab
Creating personal tab
You can edit any tab online and save it as your Personal.

You can edit, replace or remove any tab part or add personal notes – all changes will be seen only by you.

Personal tabs can be accessed anytime from any device, even offline.
Learn more »
Give kudos to tab author, rate the tab!
1 2 3 4 5
comments
print report bad tab
guest
You may want to rate the tab now too:
select rating
Wanna post a correction for this tab? Suggest correction