Oops, an error
Loading. Please wait.

1958 Tab

version 1
version 1

Whole song

Interactive

51,991 views 33 this week
3 commentsread comments
1 2 3 4 5
excellent!
x 14
add to favorites
launch autoscroll
font size
0
reset
how to read this tab
guitar tuner
Autoscroll
slow
fast
+/-
esc
set tempo
stop
Help us to improve Ultimate-Guitar.com Take our survey!
×
Author
Artist: A Day To Remember
Song: 1958
Album: And There Name Was Treason
Tuning: Dropped C

Intro.
|-----|	|-------------------------------------------------------|
|-----|	|-------------------------------------------------------|
|-----|	|-------------------------------------------------------|
|0~~~~|	|-------------------------------------------------------| x5
|0~~~~|	|----3-3h5-----3-3h5-----6p5-----3-3h5-----1p0-3p0-1p0--|
|0~~~~|	|0-0-------0-0-------0-0-----0-0-------0-0-------------3|

|----------------------------------------|  |-----------------------------|
|----------------------------------------|  |-----------------------------|
|----------------------------------------|  |-----------------------------|
|----------------------------------------|  |-----------------------------| x4
|----3-3h5-----3-3h5-----6p5-10-8-7-8-7-3|  |0-------8------10------7-----|
|0-0-------0-0-------0-0-----------------|  |0-(x16)-8-(x8)-10-(x4)-7-(x4)|

|------------------------------------|
|------------------------------------|
|------------------------------------|
|8-------10------7------5------3-----|
|8-(x16)-10-(x8)-7-(x4)-5-(x2)-3-(x2)|
|8-------10------7------5------3-----|
							/-Let Ring--\
|-------------------------------------------------------------------|
|---------------------------------------------------------14----14--|
|-------------------------------------------------------17--1717--17|
|-------------------------------------------------------------------|
|000000000~~~~000000000~~~~~000000000~~~~~000000000~~~~~------------|
|000000000~~~~000000000~~~~~000000000~~~~~000000000~~~~~------------|

				       /-Let Ring--\
|--------------------------------------------------|
|----------------------------------------14----14--|
|--------------------------------------17--1717--17|
|--------------------------------------------------|
|000000000~~~~0~0~0~0~0~0~000000000~~~~------------|
|000000000~~~~0~0~0~0~0~0~000000000~~~~------------|

|--------------------------------------------------|
|--------------------------------------------------|
|--------------------------------------------------|
|--------------------------------------------------|
|000000000~~~~0~0~0~0~0~0~000000000~~~~10-8-7-8-7-3|
|000000000~~~~0~0~0~0~0~0~000000000~~~~------------|

|--------------------------------------------------|
|--------------------------------------------------|
|--------------------------------------------------|
|8------10------7----------------------------------| x3
|8-(x8)-10-(x4)-7-(x4)-000000000~~~~~0-10-8-7-8-7-3|
|8------10------7------000000000~~~~~0-------------|

|------------------------------------------------------------------------|
|------------------------------------------------------------------------|
|------------------------------------------------------------------------|
|8------10------7--------------------------------------------------------|
|8-(x8)-10-(x4)-7-(x4)-000000000~~~~0~0~0~0~0~0~000000000~~~~0~0~0~0~0~0~|
|8------10------7------000000000~~~~0~0~0~0~0~0~000000000~~~~0~0~0~0~0~0~|

|-----|
|-----|
|-----|
|0~~~~|
|0~~~~|
|0~~~~|

|-----------------------------|	   |------------------------------------|
|-----------------------------|    |------------------------------------|
|-----------------------------|    |------------------------------------|
|-----------------------------| x4 |8-------10------7------5------3-----|
|0-------8------10------7-----|    |8-(x16)-10-(x8)-7-(x4)-5-(x2)-3-(x2)|
|0-(x16)-8-(x8)-10-(x4)-7-(x4)|    |8-------10------7------5------3-----|

							/-Let Ring--\
|-------------------------------------------------------------------|
|---------------------------------------------------------14----14--|
|-------------------------------------------------------17--1717--17|
|-------------------------------------------------------------------|
|000000000~~~~000000000~~~~~000000000~~~~~000000000~~~~~------------|
|000000000~~~~000000000~~~~~000000000~~~~~000000000~~~~~------------|

				       /-Let Ring--\
|--------------------------------------------------|
|----------------------------------------14----14--|
|--------------------------------------17--1717--17|
|--------------------------------------------------|
|000000000~~~~0~0~0~0~0~0~000000000~~~~------------|
|000000000~~~~0~0~0~0~0~0~000000000~~~~------------|

|--------------------------------------------------|
|--------------------------------------------------|
|--------------------------------------------------|
|--------------------------------------------------|
|000000000~~~~0~0~0~0~0~0~000000000~~~~10-8-7-8-7-3|
|000000000~~~~0~0~0~0~0~0~000000000~~~~------------|

|--------------------------------------------------|
|--------------------------------------------------|
|--------------------------------------------------|
|8------10------7----------------------------------| x3
|8-(x8)-10-(x4)-7-(x4)-000000000~~~~~0-10-8-7-8-7-3|
|8------10------7------000000000~~~~~0-------------|

|------------------------------------------------------------------------|
|------------------------------------------------------------------------|
|------------------------------------------------------------------------|
|8------10------7--------------------------------------------------------|
|8-(x8)-10-(x4)-7-(x4)-000000000~~~~0~0~0~0~0~0~000000000~~~~0~0~0~0~0~0~|
|8------10------7------000000000~~~~0~0~0~0~0~0~000000000~~~~0~0~0~0~0~0~|

|-----|
|-----|
|-----|
|0~~~~|
|0~~~~|
|0~~~~|
					 End.
|-----------------------------------|    |------------|
|-----------------------------------|    |------------|
|-----------------------------------|    |------------|
|7------10------3------5------6-----| x8 |0~~~0~~~~~~~|
|5-(x8)-8--(x8)-1-(x8)-3-(x4)-4-(x4)|    |0~~~0~~~~~~~|
|-----------------------------------|    |0~~~0~~~~~~~|
Suggest correction
What's this?
You can suggest a correction to this tab. Community and Mods will review your correction and vote to approve or reject it.
comments
print report bad tab
3 comments total.
+4 reply
STD_To_Remember 41 wrote on November 26 2008, 01:45 am

the intro is for both guitars should be:

guitar 1
|-----| |-------------------------------------------------------|
|-----| |-------------------------------------------------------|
|-----| |-------------------------------------------------------|
|0~~~~| |-------------------------------------------------------| x5
|0~~~~| |----3-3h5-----3-3h5-----6p5-----3-3h5-----1p0-3p0-1p0--|
|0~~~~| |0-0--0----0-0--0----0-0-----0-0--0----0-0-------------3|

guitar 2
|--------------------------------------------------------------|
|--------------------------------------------------------------|
|----5-5h7------5-5h7------8p7------5-5h7------3p2h3h5p3p2-----|
|0-0--0-----0-0--0-----0-0------0-0--0-----0-0------------h3[b]|
|--------------------------------------------------------------|
|--------------------------------------------------------------|
(i think when g2 plays "h3[b]" he might actually play a pinch harmonic.)
g2 starts after g1 plays it twice and after that g2 comes in.

+1 reply
xApollox 1,132 wrote on November 26 2008, 10:24 am

I could dig it!
Thanks mang.

0 reply
STD_To_Remember 41 wrote on November 30 2008, 12:57 am

and oh, the open notes on the D string should be palm muted if you didn't assume that already.

guest
You may want to rate the tab now too:
select rating
Please do not post tabs as comments. Select "correction" instead!