Oops, an error
Loading. Please wait.

2Nd Sucks Tab

version 3
version 3

Whole song

Interactive

6,835 views 27 this week
1 commentread comment
1 2 3 4 5
excellent!
x 5
add to favorites
launch autoscroll
font size
0
reset
how to read this tab
guitar tuner
Autoscroll
slow
fast
+/-
esc
set tempo
stop
Help us to improve Ultimate-Guitar.com Take our survey!
×
Author
Difficulty
Tuning
intermediate
B F# B E G# C#
Hey, This is my first tab, no I am not amauture i have been playing for 5 years 
now and I figured it's
 about time i tab stuff. 
This is an awesome by A Day To Remember 
and is 100 percent correct. My Band cover is here http://www.youtube.com/watch?v=u2tBdYHgJ8w 
or you can just search 2nd Sucks Band Cover, 
because we are the first to pop up enjoy the tab.

2nd Sucks What Seperates Me From You
Guitar 1. tuning Drop B
Guitar 2. tuning Drop B 

Guitar 1. Starts after fight!
|-----------------------|
|--6-x24--10-x4---5-x4--|
|--9------14------9-----|
|-----------------------|
|-----------------------|
|-----------------------|

Guitar 2. Also starts after Fight!

|-----------------------------------------------------|
|-----------------------------------------------------|
|-----------------------------------------------------|
|-----------------------------------------------------|
|-111-1--11-11--1111-1-1---1111111-1--11-11-1111-1-1--|
|-111-1--11-11--1111-1-1---1111111-1--11-11-1111-1-1--|
  ... .  .. ..  .... . .   ....... .  .. .. .... . .

|-----------------------------------------------------|
|-----------------------------------------------------|
|-----------------------------------------------------|
|-----------------------------------------------------|
|-111-1--11-11--1111-1-1---1111111-1--11-11-4444-5-5--|
|-111-1--11-11--1111-1-1---1111111-1--11-11-4444-5-5--|
  ... .  .. ..  .... . .   ....... .  .. .. .... . .


Versus 1. "Your Afraid... Like They Don't See"

Guitar 1.

|-----------------------|
|--6-x24--10-x4---5-x4--|
|--9------14------9-----|
|-----------------------|
|-----------------------|
|-----------------------|

Guitar 2. 

|-----------------------------------------------------|
|-----------------------------------------------------|
|-----------------------------------------------------|
|-----------------------------------------------------| Play Twice
|-111-1--11-11--1111-1-1---1111111-1--11-11-1111-1-1--|
|-111-1--11-11--1111-1-1---1111111-1--11-11-1111-1-1--|
  ... .  .. ..  .... . .   ....... .  .. .. .... . .


Chorus. "Oh! Is anyone listening... Nothing less from you"
Guitars 1. and 2. 

|----------------------------|
|----------------------------|
|-------------------5-5/8----|
|-------------------0-0/0----| Play twice
|-0~----3-3/6-0~----3-3/6----|
|-0~----3-3/6-0~-------------|

Versus 2. 
Guitar 1. first Time 
"Ispeak the truth.. Get over IT!"
|-----------------------------------------------------|
|-----------------------------------------------------|
|-----------------------------------------------------|
|-----------------------------------------------------|                     
|-111-1--11-11--1111-1-1---1111111-1--11-11-1111-1-1--|
|-111-1--11-11--1111-1-1---1111111-1--11-11-1111-1-1--|
  ... .  .. ..  .... . .   ....... .  .. .. .... . .

Guitar 1. Play this second time 
"Can't waste my time... Have too"
|-----------------------|
|--6-x24--10-x4---5-x4--|
|--9------14------9-----|
|-----------------------|
|-----------------------|
|-----------------------|



Guitar 2.
"I Speak the truth... Makin' you have too"
|-----------------------------------------------------|
|-----------------------------------------------------|
|-----------------------------------------------------|
|-----------------------------------------------------| Guitar 2. plays  
|-111-1--11-11--1111-1-1---1111111-1--11-11-1111-1-1--| twice
|-111-1--11-11--1111-1-1---1111111-1--11-11-1111-1-1--|
  ... .  .. ..  .... . .   ....... .  .. .. .... . .

Chorus 2.
"Oh! Is anyone listening... Nothing less from you"
Guitars 1. and 2. 

|----------------------------|
|----------------------------|
|-------------------5-5/8----|
|-------------------0-0/0----| Play twice
|-0~----3-3/6-0~----3-3/6----|
|-0~----3-3/6-0~-------------|


Bridge 
Guitars 1. and 2.
                 "I just can't believe"        "It's Nearly come to this"
|----------------------------------------------------------------|
|----------------------------------------------------------------|
|----------------------------------------------------------------|
|----------------------------------------------------------------|
|-7~--7-7--8~--7~--0-000-000-000--7~--7-7--8~--7~--0-000--0-000--|
|-7~--7-7--8~--7~--0-000-000-000--7~--7-7--8~--7~--0-000--0-000--|
                   . ... ... ...                   . ...  . ...
                "Because without me"                   "You Would not exist"
|-------------------------------------------------------|
|-------------------------------------------------------|
|-------------------------------------------------------|
|-------------------------------------------------------|
|-7~--7-7--8~--7~--0-000-000-000--7~--7-7--8~--7~--0-0--|
|-7~--7-7--8~--7~--0-000-000-000--7~--7-7--8~--7~--0-0--|
                   . ... ... ...                   . .

Break Down
Guitars 1. and 2.

|-------------------------------------------|
|-------------------------------------------|
|-------------------------------------------| play twice
|-------------------------------------------|
|-8--0~---0-0000--0-0000--0-0--0~---0-0000--|
|-8--0~---0-0000--0-0000--0-0--0~---0-0000--|
     .    . ....  . ....  . .  .    . ..

Bridge 2.
Guitar 1. "Still Got something left to say... Get away from me"

|---------------------|
|---------------------|
|-7-----10----14------|
|---x8----x8----x16---| play twice
|-5-----8-----12------|
|---------------------|

Guitar 2. "Still Got something left to say... Get away from me"

|----------------------------------------------------------------|
|----------------------------------------------------------------|
|----------------------------------------------------------------|
|----------------------------------------------------------------| play
|-0--0-0-0-0-0-0-4-3-0-0-0-0-0-0-1-0-0-0-0-0-0-0-0-8-8-8-8-4-4-4-| twice
|-0--0-0-0-0-0-0-4-3-0-0-0-0-0-0-1-0-0-0-0-0-0-0-0-8-8-8-8-4-4-4-|
     . . . . . .     . . . . . .     . . . . . . .


Break Down 2. 
Guitars 1. and 2.

|------------------------------------------------------|
|------------------------------------------------------|
|-----------------------------------------------5-5/8--|
|-----------------------------------------------0-0/0--|
|-0~--0~--000-000-0-0~---0~--0~--000-000-0-0~---3-3/6--|
|-0~--0~--000-000-0-0~---0~--0~--000-000-0-0~----------|
  .   .   ... ... . .    .   .   ... ... . .

Finale Chorus
"Oh! Is anyone listening... Nothing less from you"
Guitars 1. and 2. 

|----------------------------|
|----------------------------|
|-------------------5-5/8----|
|-------------------0-0/0----| Play twice
|-0~----3-3/6-0~----3-3/6----|
|-0~----3-3/6-0~-------------|
Suggest correction
What's this?
You can suggest a correction to this tab. Community and Mods will review your correction and vote to approve or reject it.
comments
print report bad tab
1 comment total.
0 reply
toxicevil13 197 wrote on November 21 2014, 10:51 am

Guitar 1 plays...

--------------------------------|
---6--x16-5-6--x8-10--x4-5--x3--|
---9------9-9-----14-----9------|
--------------------------------|
--------------------------------|
--------------------------------|

But this is a really accurate tab! Keep at it!!!

guest
You may want to rate the tab now too:
select rating
Please do not post tabs as comments. Select "correction" instead!