Oops, an error
Loading. Please wait.

A Second Glance Bass Tab

version 1
version 1

Whole song

Interactive

28 views 1 this week
no commentswrite comment
1 2 3 4 5
3 more votes to show rating
add to favorites
launch autoscroll
font size
0
reset
guitar tuner
Autoscroll
slow
fast
+/-
esc
set tempo
stop
Help us to improve Ultimate-Guitar.com Take our survey!
×
Author
Difficulty
Tuning
novice
C G C F A D
A Day To Remember - A Second Glance

Tabbed by: Ash (XxThreeCheersxX)
email: burdickash@gmail.com

Intro (no bass)

Chorus x 2
F|-----------------------------------------------------------------|
C|-----------------------------------------------------------------|
G|-----------------------------------------------------------------|
C|-5-5-5-5-5-5-5-5-5-5-5-5-5-5-5-5-7-7-7-7-7-7-7-7-7-7-7-7-7-7-7-7-|

F|-----------------------------------------------------------------|
C|-----------------------------------------------------------------|
G|-----------------------------------------------------------------|
C|-9-9-9-9-9-9-9-9-9-9-9-9-9-9-9-9-9-9-9-9-9-9-9-9-9-9-9-9-9-9-9-9-|


Verse 
F|-----------------------------------------------------------------|
C|-----------------------------------------------------------------|
G|-----------------------------------------------------------------|
C|-5-5-5-5-5-5-5-5-5-5-5-5-5-5-5-5-7-7-7-7-7-7-7-7-7-7-7-7-7-7-7-7-|

F|-----------------------------------------------------------------|
C|-----------------------------------------------------------------|
G|-----------------------------------------------------------------|
C|-0-0-0-0-0-0-0-0-0-0-0-0-0-0-0-0-0-0-0-0-0-0-0-0-0-0-0-0-4-4-4-4-|

F|-----------------------------------------------------------------|
C|-----------------------------------------------------------------|
G|-----------------------------------------------------------------|
C|-5-5-5-5-5-5-5-5-5-5-5-5-5-5-5-5-7-7-7-7-7-7-7-7-7-7-7-7-7-7-7-7-|

F|-----------------------------------------------------------------|
C|-----------------------------------------------------------------|
G|-----------------------------------------------------------------|
C|-0-0-0-0-0-0-0-0-0-0-0-0-0-0-0-0-0-0-0-0-0-0-0-0-0-0-0-0---------|

Chorus x 2

Verse 

Chorus

Bridge
F|------------------------------------------|
C|------------------------------------------|
G|------------------------------------------|
C|-5~----------------7~----------------12\--|

F|-------------------------------------------------|
C|-------------------------------------------------|
G|-------------------------------------------------|
C|-0-0x--0-0x--0-0x--0-0x--0-0x--0-0x--0-0x--0-0x--|

F|-------------------------------------------------|
C|-------------------------------------------------|
G|-------------------------------------------------|
C|-0-0x--0-0x--0-0x--0-0x--0-0x--0-0x--0-0x--12\---|

F|-----------------------------------------|
C|-----------------------------------------|
G|-----------------------------------------| x 2
C|-0-0~----------------0-0~----------------|

"After all that you've put me through, my friends still stay true"
F|-----------------------------------------|
C|-----------------------------------------|
G|-----------------------------------------|
C|-0-0~------------------------------------|

Outro Breakdown
F|------------------------------------------------|
C|------------------------------------------------|
G|------------------------------------------------| x 4
C|-0-0~----0-0-0-0~-------0-0~----0-0-0-0~--------|

F|------------------------------------------------|
C|------------------------------------------------|
G|------------------------------------------------|
C|-0~---------------------------------------------|

Happy playing!


************************************

| x   Dead note
| g   Grace note
| (n) Ghost note
| h   Hammer-on
| p   Pull-off
| r   Release
| >   Accented note
| t   Tapping
| b   Bend
| br  Bend release
| pb  Pre-bend
| pbr Pre-bend release
| /   Slide up
| \   Slide down
| ~   Vibrato
| s   Slap
| P   Pop
| PM  Palm mute
| TR  Trill
| N   Tremolo

************************************
Suggest correction
Give kudos to tab author, rate the tab!
1 2 3 4 5
comments
print report bad tab
guest
You may want to rate the tab now too:
select rating
Wanna post a correction for this tab? Suggest correction