Oops, an error
Loading. Please wait.
We have an official All I Want tab made by UG professional guitarists. Check out the tab »
×
137,496 views 129 this week
11 commentsread comments
1 2 3 4 5
x 30
add to favorites
×
Save as Personal and add changes to this tab that will be seen only by you. Learn more ›
×
You can save this tab as Personal to edit and correct it or add notes. All changes will be seen only by you. Learn more »
save as personal
new!
launch autoscroll
font size
0
reset
how to read this tab
guitar tuner
backing track
0:00
0:00
Autoscroll
slow
fast
+/-
esc
set tempo
stop
Author
Tuning
B F# B E G# C#
Kevin Skaff: (Guitar 1) (Lead)
Neil Westfall: (Guitar 2) (Rhythm)

Tuning (Both guitars): Drop B (B F# B E G# C#)

[Intro/Verse]
(Guitar 1)
C#|-----------------------------------------8p7-----------8p7-------------------------|
G#| ---------------------------------------------8/10-8-------8/10-8---10/12/10p8-----|
E |--12-12-12-12-12-12-12-7/9-9-9-9-9-9-9---------------9------------9----------------|
B |---x--x--x--x--x--x--x-x/x-x-x-x-x-x-x---------------------------------------------| (x2)
F#|--10-10-10-10-10-10-10-5/7-7-7-7-7-7-7---------------------------------------------|
B |---x--x--x--x--x--x--x-x/x-x-x-x-x-x-x---------------------------------------------|

C#|-----------------------------------0~~----------------|
G#|--0~~------------------------------8~~----------------|
E |--1~~------------------------------9~~----------------|
B |--2~~------------------------------x~~----------------| (x1)
F#|--2~~------------------------------7~~----------------|
B |--x---------------------------------------------------|

C#|--0-0-0-0-0-0-0-0-0-0-0-0-0-0-0-0-0-0-0-0-0-0-0-0-0-0-0-0-0-0-0-0-----|
G#|--8-8-8-8-8-8-8-8-8-8-8-8-8-8-8-9-8-8-8-8-8-8-8-8-7-7-7-7-7-7-7-8-----|
E |--9-9-9-9-9-9-9-9-9-9-9-9-9-9-9-9-9-9-9-9-9-9-9-9-9-9-9-9-9-9-9-9-----|
B |----------------------------------------------------------------------|  (x2)
F#|----------------------------------------------------------------------|
B |----------------------------------------------------------------------|

(Guitar 2)
C#|------------------------------------------------------------------------|
G#|------------------------------------------------------------------------|
E |------------------------------------------------------------------------|
B |--2-2-2-2-2-2-2-2--5-5-5-5-5-5-5--2-2-2-2-2-2-2-2--5-5-5-5--4-4-4-4-----|  (x6)
F#|--2-2-2-2-2-2-2-2--7-7-7-7-7-7-7--3-3-3-3-3-3-3-3--5-5-5-5--4-4-4-4-----|
B |--2-2-2-2-2-2-2-2--x-x-x-x-x-x-x--x-x-x-x-x-x-x-x--5-5-5-5--4-4-4-4-----|

[Pre-Chorus]
(Guitar 1)
C#|--0-0-0-2-2-2-3-3-3-0-0-0-2-2-3-3-0-0-0-2-2-2-3-3-5-5-5-2-2-2-0-0-----|
G#|--3-3-3-3-3-3-3-3-3-3-3-3-3-3-3-3-3-3-3-3-3-3-3-3-3-3-3-3-3-3-3-3-----|
E |----------------------------------------------------------------------|
B |----------------------------------------------------------------------|
F#|----------------------------------------------------------------------|
B |----------------------------------------------------------------------|

C#|--0-0-0-2-2-2-3-3-3-0-0-0-2-2-3-3-5-5-5-5-5-5-5-5-5-5-5-5-5-----|
G#|--3-3-3-3-3-3-3-3-3-3-3-3-3-3-3-3-3-3-3-3-3-3-3-3-3-3-3-3-3-----|
E |----------------------------------------------------------------|
B |----------------------------------------------------------------|  (x1)
F#|----------------------------------------------------------------|
B |----------------------------------------------------------------|

(Guitar 2)
C#|-------------------------------------------------------|
G#| ------------------------------------------------------|
E |-------------------------------------------------------|
B |---5------5------4------2------5------5------7---------|  (x1)
F#|---3-x8---5-x8---5-x8---2-x8---3-x8---5-x8---5-(x1)3---|
B |---x------5------x------2------x------5------x---------|

[Chorus 1]
(Guitar 1)
C#|---------------------------------------------------------------------|
G#|---------------------------------------------------------------------|
E |--x-x-x-x-x-x-------------------7/9-12-9-11-9-7/9-12-9-11-9-7/9-12-9-|
B |--x-x-x-x-x-x---2-------5--------------------------------------------|
F#|--x-x-x-x-x-x---2-(x1)6---5-(x1)6------------------------------------|
B |--x-x-x-x-x-x---2-------5--------------------------------------------|

C#|--0--0--0--0--0--0--0--0-0-----|
G#|-13-13-13-12-12-12-10-10-5-----|
E |--x--x--x--x--x--x--x--x-x-----|
B |-10-10-10--9--9--9--7--7-3-----|   (x1)
F#|-------------------------------|
B |-------------------------------|

(Guitar 2)
C#|---------------------------------------------------|
G#|---------------------------------------------------|
E |--x-x-x-x-x-x--------------------------------------|
B |--x-x-x-x-x-x---2-------5-------7-------5----------|  (x1)
F#|--x-x-x-x-x-x---2-(x1)6---5-(x1)6---5-(x1)6---3-x9-|
B |--x-x-x-x-x-x---2-------5-------x-------x----------|

[Verse 2]
(Guitars 1 & 2)
C#|------------------------------------------------------------------------|
G#| -----------------------------------------------------------------------|
E |------------------------------------------------------------------------|
B |--2-2-2-2-2-2-2-2--5-5-5-5-5-5-5--2-2-2-2-2-2-2-2--5-5-5-5--4-4-4-4-----|  (x2)
F#|--2-2-2-2-2-2-2-2--7-7-7-7-7-7-7--3-3-3-3-3-3-3-3--5-5-5-5--4-4-4-4-----|
B |--2-2-2-2-2-2-2-2--x-x-x-x-x-x-x--x-x-x-x-x-x-x-x--5-5-5-5--4-4-4-4-----|
      . . . . . . . .  . . . . . . .  . . . . . . . .  . . . .  . . . .

[Pre-Chorus]
(Guitar 1)
C#|--0-0-0-2-2-2-3-3-3-0-0-0-2-2-3-3-0-0-0-2-2-2-3-3-5-5-5-2-2-2-0-0-----|
G#|--3-3-3-3-3-3-3-3-3-3-3-3-3-3-3-3-3-3-3-3-3-3-3-3-3-3-3-3-3-3-3-3-----|
E |----------------------------------------------------------------------|
B |----------------------------------------------------------------------|
F#|----------------------------------------------------------------------|
B |----------------------------------------------------------------------|

C#|--0-0-0-2-2-2-3-3-3-0-0-0-2-2-3-3-5-5-5-5-5-5-5-5-5-5-5-5-5-----|
G#|--3-3-3-3-3-3-3-3-3-3-3-3-3-3-3-3-3-3-3-3-3-3-3-3-3-3-3-3-3-----|
E |----------------------------------------------------------------|
B |----------------------------------------------------------------|  (x1)
F#|----------------------------------------------------------------|
B |----------------------------------------------------------------|

[Chorus 2]
(Guitar 1)
C#|--------------------------------------------------------------------|
G#|--------------------------------------------------------------------|
E |--x-x-x-x-x-x------------------7/9-12-9-11-9-7/9-12-9-11-9-7/9-12-9-|
B |--x-x-x-x-x-x---2-------5-------------------------------------------|
F#|--x-x-x-x-x-x---2-(x1)6---5-(x1)6-----------------------------------|
B |--x-x-x-x-x-x---2-------5-------------------------------------------|

C#|--0--0--0--0--0--0--0--0-0-0-0-0-0-0-0-----|
G#|-13-13-13-12-12-12-10-10-5-5-5-5-5-5-5-----|
E |--x--x--x--x--x--x--x--x-x-x-x-x-x-x-x-----|
B |-10-10-10--9--9--9--7--7-3-3-3-3-3-3-3-----|   (x2)
F#|-------------------------------------------|
B |-------------------------------------------|

(Guitar 2)
C#|--------------------------------------------------|
G#|--------------------------------------------------|
E |--x-x-x-x-x-x-------------------------------------|
B |--x-x-x-x-x-x---2-------5-------7-------5---------|    (x2)
F#|--x-x-x-x-x-x---2-(x1)6---5-16x---5-16x---3-15x---|
B |--x-x-x-x-x-x---2-------5-------x-------x---------|

[Breakdown section]
(Guitar 1)
C#|------------------------------------------------------|
G#|--12-12-12-12-12-12-12-12-12-12-12-12-13-13-13-13-----|
E |---x--x--x--x--x--x--x--x--x--x--x--x--x--x--x--x-----|
B |---9--9--9--9--9--9--9--9--9--9--9--9-10-10-10-10-----|  x3
F#|------------------------------------------------------|
B |------------------------------------------------------|

C#|---------------------------------------------|
G#|--------------------13-13-13-13-13-13-13-----|
E |--x-x-x-x-x-x-x-x-x--x--x--x--x--x--x--x-----|
B |--9-9-9-9-9-9-9-9-9-10-10-10-10-10-10-10-----|  (x1)
F#|---------------------------------------------|
B |---------------------------------------------|

C#|------------------------------------------------------|
G#|--12-12-12-12-12-12-12-12-12-12-12-12-13-13-13-13-----|
E |---x--x--x--x--x--x--x--x--x--x--x--x--x--x--x--x-----|
B |---9--9--9--9--9--9--9--9--9--9--9--9-10-10-10-10-----|  (x2)
F#|------------------------------------------------------|
B |------------------------------------------------------|

C#|--------------------------------------------------------------|
G#|--12-12-12-12-12-12-12-12-12-12-12-12--8--8--8--8--5--5--5--5-|
E |---x--x--x--x--x--x--x--x--x--x--x--x--x--x--x--x--x--x--x--x-|
B |---9--9--9--9--9--9--9--9--9--9--9--9--5--5--5--5--2--2--2--2-|
F#|--------------------------------------------------------------|
B |--------------------------------------------------------------|

C#|--------------------------------------------|
G#|-5--5--5--5--8--8--8--8--7--7--7--7--5~-----|
E |-x--x--x--x--x--x--x--x--x--x--x--x--x~-----|
B |-2--2--2--2--5--5--5--5--4--4--4--4--2~-----|  (x1)
F#|--------------------------------------------|
B |--------------------------------------------|

(Guitar 2)
C#|-------------------------------|
G#|-------------------------------|
E |-------------------------------|
B |--5-5-5-5-0--2-2-2-2-----------|   (x3)
F#|--7-7-6-6-0--3-3-3-3-5-5-5-----|
B |--x-x-x-x-0--x-x-x-x-5-5-5-----|

C#|-------------------------------|
G#|-------------------------------|
E |-------------------------------|
B |-2-----3-3-3-3-5-5-5-----------|   (x1)
F#|-0-x9--3-3-3-3-5-5-5-----------|
B |-------3-3-3-3-5-5-5-----------|

C#|-------------------------------|
G#|-------------------------------|
E |-------------------------------|
B |-2-2-1-1-0--2-2-2-2------------|  (x2)
F#|-2-2-1-1-0--3-3-3-3-5-5-5------|
B |-2-2-1-1-0--x-x-x-x-5-5-5------|

C#|-------------------------------------------------|
G#|-------------------------------------------------|
E |-------------------------------------------------|
B |-2-2-1-1-0--2-2-2-2-------2----3-3-3-3-5-5-5-----|   (x1)
F#|-2-2-1-1-0--3-3-3-3-5-5-5-0-x9-3-3-3-3-5-5-5-----|
B |-2-2-1-1-0--x-x-x-x-5-5-5------3-3-3-3-5-5-5-----|

The bridge goes directly into the the next verse:

[Verse]
(Guitar 1)
C#|--------------------------------------------------------------------------------------------|
G#|--------------------------------------------------------------------------------------------|
E |--------------**(Guitar 1) just chills, and doesn't play anything for this verse section**----|
B |--------------------------------------------------------------------------------------------|
F#|--------------------------------------------------------------------------------------------|
B |--------------------------------------------------------------------------------------------|

(Guitar 2)
C#|------------------------------------------------------------------------|
G#| -----------------------------------------------------------------------|
E |------------------------------------------------------------------------|
B |--2-2-2-2-2-2-2-2--5-5-5-5-5-5-5--2-2-2-2-2-2-2-2--5-5-5-5--4-4-4-4-----|  (x1)
F#|--2-2-2-2-2-2-2-2--7-7-7-7-7-7-7--3-3-3-3-3-3-3-3--5-5-5-5--4-4-4-4-----|
B |--2-2-2-2-2-2-2-2--x-x-x-x-x-x-x--x-x-x-x-x-x-x-x--5-5-5-5--4-4-4-4-----|

C#|----------------------------------------------------------|
G#|----------------------------------------------------------|
E |----------------------------------------------------------|
B |--2-2-2-2-2-2-2-2--5-5-5-5-5-5-5--2-2-2-2-2-2-2-2---5-----|   (x1)
F#|--2-2-2-2-2-2-2-2--7-7-7-7-7-7-7--3-3-3-3-3-3-3-3---5-----|
B |--2-2-2-2-2-2-2-2--x-x-x-x-x-x-x--x-x-x-x-x-x-x-x---5-----|

(The chorus is then repeated followed by the breakdown progression again, only
(Guitar 1) plays the rhythm part while (Guitar 2) plays the lead part)

[Lead]
(Guitar 1)
C#|------------------------------|
G#|------------------------------|
E |------------------------------|
B |-2-2-1-1-0--2-2-2-2-----------|  (x2)
F#|-2-2-1-1-0--3-3-3-3-5-5-5-----|
B |-2-2-1-1-0--x-x-x-x-5-5-5-----|

C#|-----------------------------------------------------------|
G#|-----------------------------------------------------------|
E |-----------------------------------------------------------|
B |-2-2-1-1-0--2-2-2-2-------2-----5-5-5-5-5-5-5-5-5-5-2~~----|   (x1)
F#|-2-2-1-1-0--3-3-3-3-5-5-5-0-x9--3-3-3-3-5-5-5-5-5-5-2~~----|
B |-2-2-1-1-0--x-x-x-x-5-5-5-------x-x-x-x-5-5-5-5-5-5-2~~----|

(Guitar 2)
C#|------------------------------------------------------|
G#|--12-12-12-12-12-12-12-12-12-12-12-12-13-13-13-13-----|
E |---x--x--x--x--x--x--x--x--x--x--x--x--x--x--x--x-----|
B |---9--9--9--9--9--9--9--9--9--9--9--9-10-10-10-10-----|  (x2)
F#|------------------------------------------------------|
B |------------------------------------------------------|

C#|------------------------------------------------------------------|
G#|---12-12-12-12-12-12-12-12-12-12-12-12--8--8--8--8--5--5--5--5--5-|
E |----x--x--x--x--x--x--x--x--x--x--x--x--x--x--x--x--x--x--x--x--x-|
B |----9--9--9--9--9--9--9--9--9--9--9--9--5--5--5--5--2--2--2--2--2-|
F#|------------------------------------------------------------------|
B |------------------------------------------------------------------|

C#|------------------------------------------|
G#|-5--5--5--8--8--8--8--7--7--7--7--5~~-----|
E |-x--x--x--x--x--x--x--x--x--x--x--x~~-----|
B |-2--2--2--5--5--5--5--4--4--4--4--2~~-----|  (x1)
F#|------------------------------------------|
B |------------------------------------------| 


************************************

| x  Dead note
| p  Pull-off
| /  Slide up
| ~  Vibrato 

************************************
Suggest correction
comments
print report bad tab
11 comments total. Showing first comments.
+2 reply
Griff5516 324 Jul 06, 2011 07:25 AM

In the intro/verse where guitar 1 plays:

--0~~------------------------------0~~----------------|
--8~~------------------------------8~~----------------|
--9~~------------------------------9~~----------------|
--x~~------------------------------x~~----------------| x1
--7~~------------------------------7~~----------------|
------------------------------------------------------|

The first chord should be:

-----------------------------------0~~----------------|
--0~~------------------------------8~~----------------|
--1~~------------------------------9~~----------------|
--2~~------------------------------x~~----------------| x1
--2~~------------------------------7~~----------------|
--x---------------------------------------------------|

sorry for the mistake!

0 reply
a7xforlife96 73 Oct 26, 2011 06:40 PM

this is a really good tab. but, idk how you did it. all the fingerings and notes are right, but its in drop c, not b. only song on the album that is, and the acoustic version is also.

+3 reply
metalhead601 208 Mar 18, 2012 07:12 PM

Instead of this since it's missing one note its

C# |-----------------------------------------8p7----------8p7------------------------|
G# | ---------------------------------------------8/10-8-------8/10-8-10/12/10p8-----|
E |--12-12-12-12-12-12-12-7/9-9-9-9-9-9-9-------------------------------------------|

This one. You're missing the 9 on the G string
C# |-----------------------------------------8p7-----------8p7------------------------|
G# | ---------------------------------------------8/10-8-------8/10-8---10/12/10p8----|
E |--12-12-12-12-12-12-12-7/9-9-9-9-9-9-9---------------9------------9---------------|

guest
You may want to rate the tab now too:
select rating
Wanna post a correction for this tab? Suggest correction