Oops, an error
Loading. Please wait.
We have an official All I Want tab made by UG professional guitarists. Check out the tab »
×
5,028 views 3 this week
no commentswrite comment
1 2 3 4 5
x 3
add to favorites
×
Save as Personal and add changes to this tab that will be seen only by you. Learn more ›
×
You can save this tab as Personal to edit and correct it or add notes. All changes will be seen only by you. Learn more »
save as personal
new!
launch autoscroll
font size
0
reset
how to read this tab
guitar tuner
backing track
0:00
0:00
Autoscroll
slow
fast
+/-
esc
set tempo
stop
Difficulty
Tuning
novice
C G C F A D
Intro
D----------------------------------|
A----------------------------------|
F----------------\-----------------|
C----5-5-5-5-5-5-5\0-2-2-2-2-2-2-2-|
G----5-5-5-5-5-5-5\0-2-2-2-2-2-2-2-|
C----5-5-5-5-5-5-5\0-2-2-2-2-2-2-2-|

D------------------------------------------------|
A--13p12------------13p12-----------10h12p10-----|
F-------12-14p12---------12-14p12-----------12---|
C---------------14---------------14--------------|
G------------------------------------------------|
C------------------------------------------------|
Verse
D------|
A------|
F------|
C----2-|  x15
G----2-|
C----2-|


D--------------------------------------------|
A--------------------------------------------|
F----5-5-5-5-5-5-5-5/-7-7-7-7-7-7-7-7/-------|
C----x-x-x-x-x-x-x-x/-x-x-x-x-x-x-x-x/-------|
G----3-3-3-3-3-3-3-3/-5-5-5-5-5-5-5-5/-------|
C--------------------------------------------|

Pre-Chorus
D-----------------------------------------------------------------------|
A-----------------------------------------------------------------------|
F----5---------------7----------------------5---------------7-----------|
C----5-x8----5-------7-x8----2--------------5-x8----5-------7-x8--------|
G----3-------5-x8----5-------2-x8-----------3-------5-x8----5-----------|
C------------5---------------2----------------------5-------------------|

Chorus
D------------------------------------------------------|
A------------------------------------------------------|
F----------------------7--------5---------7\-----------|
C----2--------5--------7-x16----5--x8-----7\-----------|
G----2-x16----5-x16----5--------3---------5\-----------|
C----2--------5----------------------------------------|

Verse Intro
D----------------|
A----------------|
F----------------|
C--2-2-2-2-2-2-2-|
G--2-2-2-2-2-2-2-|
C--2-2-2-2-2-2-2-|

D------------------------------------------------|
A--13p12------------13p12-----------10h12p10-----|
F-------12-14p12---------12-14p12-----------12---|
C---------------14---------------14--------------|
G------------------------------------------------|
C------------------------------------------------|

Verse
D------|
A------|
F------|
C----2-|  x15
G----2-|
C----2-|


D--------------------------------------------|
A--------------------------------------------|
F----5-5-5-5-5-5-5-5/-7-7-7-7-7-7-7-7/-------|
C----x-x-x-x-x-x-x-x/-x-x-x-x-x-x-x-x/-------|
G----3-3-3-3-3-3-3-3/-5-5-5-5-5-5-5-5/-------|
C--------------------------------------------|

Pre-Chorus
D-----------------------------------------------------------------------|
A-----------------------------------------------------------------------|
F----5---------------7----------------------5---------------7-----------|
C----5-x8----5-------7-x8----2--------------5-x8----5-------7-x8--------|
G----3-------5-x8----5-------2-x8-----------3-------5-x8----5-----------|
C------------5---------------2----------------------5-------------------|

Chorus
D------------------------------------------------------|
A------------------------------------------------------|
F----------------------7--------5---------7\-----------|
C----2--------5--------7-x16----5--x8-----7\-----------|
G----2-x16----5-x16----5--------3---------5\-----------|
C----2--------5----------------------------------------|

D------------------------------------------------------|
A------------------------------------------------------|
F----------------------7--------5---------7\-----------|
C----2--------5--------7-x16----5--x8-----7\-----------|
G----2-x16----5-x16----5--------3---------5\-----------|
C----2--------5----------------------------------------|

Bridge
D------------------------------------------------------------------------------|
A------------------------------------------------------------------------------|
F---------------------5-5-5-5----------------------------------5-5-5-5--7-7-7--|
C---2~----1~----0~----5-5-5-5-0-0-0----------2~----1~----0~----5-5-5-5--7-7-7--|
G---2~----1~----0~----3-3-3-3-0-0-0----------2~----1~----0~----3-3-3-3--5-5-5--|
C---2~----1~----0~------------0-0-0----------2~----1~----0~--------------------|

D-----------------------------------------------------------------------------------|
A-----------------------------------------------------------------------------------|
F-------------------5-5-5-5---------------------------------------------------------|
C-2~----1~----0~----5-5-5-5-0-0-0-----7-7-7-7-7-7-7-7/10-10-10-10-10-10-10-10--0~---|
G-2~----1~----0~----3-3-3-3-0-0-0-----7-7-7-7-7-7-7-7/10-10-10-10-10-10-10-10--0~---|
C-2~----1~----0~------------0-0-0-----7-7-7-7-7-7-7-7/10-10-10-10-10-10-10-10--0~---|

Interlude
D------------------------------------------------------------------------------|
A------------------------------------------------------------------------------|
F---------------------5-5-5-5----------------------------------5-5-5-5--7-7-7--|
C---2~----1~----0~----5-5-5-5-0-0-0----------2~----1~----0~----5-5-5-5--7-7-7--|
G---2~----1~----0~----3-3-3-3-0-0-0----------2~----1~----0~----3-3-3-3--5-5-5--|
C---2~----1~----0~------------0-0-0----------2~----1~----0~--------------------|

D-----------------------------------------------------------------------------------|
A-----------------------------------------------------------------------------------|
F-------------------5-5-5-5---------------------------------------------------------|
C-2~----1~----0~----5-5-5-5-0-0-0-----7-7-7-7-7-7-7-7/10-10-10-10-10-10-10-10--0~---|
G-2~----1~----0~----3-3-3-3-0-0-0-----7-7-7-7-7-7-7-7/10-10-10-10-10-10-10-10--0~---|
C-2~----1~----0~------------0-0-0-----7-7-7-7-7-7-7-7/10-10-10-10-10-10-10-10--0~---|

Verse
D------|
A------|
F------|
C----2-|  x15
G----2-|
C----2-|


D--------------------------------------------|
A--------------------------------------------|
F----5-5-5-5-5-5-5-5/-7-7-7-7-7-7-7-7/-------|
C----x-x-x-x-x-x-x-x/-x-x-x-x-x-x-x-x/-------|
G----3-3-3-3-3-3-3-3/-5-5-5-5-5-5-5-5/-------|
C--------------------------------------------|

Chorus
D------------------------------------------------------|
A------------------------------------------------------|
F----------------------7--------5---------7\-----------|
C----2--------5--------7-x16----5--x8-----7\-----------|
G----2-x16----5-x16----5--------3---------5\-----------|
C----2--------5----------------------------------------|

D------------------------------------------------------|
A------------------------------------------------------|
F----------------------7--------5---------7\-----------|
C----2--------5--------7-x16----5--x8-----7\-----------|
G----2-x16----5-x16----5--------3---------5\-----------|
C----2--------5----------------------------------------|

Outro
D------------------------------------------------------------------------------|
A------------------------------------------------------------------------------|
F---------------------5-5-5-5----------------------------------5-5-5-5--7-7-7--|
C---2~----1~----0~----5-5-5-5-0-0-0----------2~----1~----0~----5-5-5-5--7-7-7--|
G---2~----1~----0~----3-3-3-3-0-0-0----------2~----1~----0~----3-3-3-3--5-5-5--|
C---2~----1~----0~------------0-0-0----------2~----1~----0~--------------------|

D-----------------------------------------------------------------------------------|
A-----------------------------------------------------------------------------------|
F-------------------5-5-5-5---------------------------------------------------------|
C-2~----1~----0~----5-5-5-5-0-0-0-----7-7-7-7-7-7-7-7/10-10-10-10-10-10-10-10--0~---|
G-2~----1~----0~----3-3-3-3-0-0-0-----7-7-7-7-7-7-7-7/10-10-10-10-10-10-10-10--0~---|
C-2~----1~----0~------------0-0-0-----7-7-7-7-7-7-7-7/10-10-10-10-10-10-10-10--0~---|

D------|
A------|
F------|
C----2-|  
G----2-|
C----2-|

Suggest correction
Give kudos to tab author, rate the tab!
1 2 3 4 5
comments
print report bad tab
guest
Wanna post a correction for this tab? Suggest correction