Oops, an error
Loading. Please wait.

All I Want Bass Tab

version 5
version 5
2,041 views 1 this week
no commentswrite comment
1 2 3 4 5
please rate
add to favorites
launch autoscroll
font size
0
reset
guitar tuner
Tab Pro tools
  • play this tab
  • loop segment
  • change instrument
  • show fretboard
  • metronome
×
Best way to learn
"All I Want"
Autoscroll
slow
fast
+/-
esc
set tempo
stop
Contributor
Difficulty
Tuning
novice
B F# B E G# C#
Okay, so for my fellow 5 string players I've tried tabbing this out... listen to the 
song for timing... First tab guys :D Just spent a while trnasposing it to a 5 string but 
it's pretty fun to play

Tabbed By : RockTillWeDrop
e-mail: Welshrugbyfan1@msn.com

Tuning: BEADG standard bass (5-string)


Intro/Verse x6

G|----------------------------------------------------------|
D|----------------------------------------------------------|
A|-----------3/55555555-------------------------------------|
E|------------------------66666666--------------------------|
B|-3333333--------------------------66665555----------------|


Pre-chorus x1

G|----------------------------------------------------------|
D|----------------------------------------------------------|
A|----------------------------------------------------------|
E|-66666666----------88888888-------------------------------|
B|----------66666666----------33333333----------------------|

G|----------------------------------------------------------|
D|----------------------------------------------------------|
A|----------------------------------------------------------|
E|-66666666----------8888888888888888-----------------------|
B|----------66666666----------------------------------------|

Chorus x1

G|-------------------------------------------------------------------------|
D|-------------------------------------------------------------------------|
A|-------------------------------------------------------------------------|
E|-----------------------------------8888888888888888-66666666-------------|
B|-3333333333333333-6666666666666666---------------------------------------|

 Pre-verse/verse x4 (whatever you wanna call it just play this 4 times :P)

G|----------------------------------------------------------|
D|----------------------------------------------------------|
A|-----------3/55555555-------------------------------------|
E|------------------------66666666--------------------------|
B|-3333333--------------------------66665555----------------|

pre-chorus x1

G|----------------------------------------------------------|
D|----------------------------------------------------------|
A|----------------------------------------------------------|
E|-66666666----------88888888-------------------------------|
B|----------66666666----------33333333----------------------|

G|----------------------------------------------------------|
D|----------------------------------------------------------|
A|----------------------------------------------------------|
E|-66666666----------8888888888888888-----------------------|
B|----------66666666----------------------------------------|

Chorus

G|-------------------------------------------------------------------------|
D|-------------------------------------------------------------------------|
A|-------------------------------------------------------------------------|
E|-----------------------------------8888888888888888-6666666666666666-----|
B|-3333333333333333-6666666666666666---------------------------------------|

G|-------------------------------------------------------------------------|
D|-------------------------------------------------------------------------|
A|-------------------------------------------------------------------------|
E|-----------------------------------8888888888888888-66666666-------------|
B|-3333333333333333-6666666666666666---------------------------------------|


Bridge x3 (10's not 1's and 0's)


G|----------------------------------------------------------|
D|----------------------------------------------------------|
A|----------------------------------------------------------|
E|-101010--999--888--6666--8888-----------------------------|
B|----------------------------------------------------------|
 Then the 4th time round end on

G|-----------------------------------------|
D|-----------------------------------------|
A|-----------------------------------------|
E|-----------66666666----------------------|
B|-88888888--------------------------------|



Breakdown x3

G|----------------------------------------------------------|
D|----------------------------------------------------------|
A|----------------------------------------------------------|
E|--------------666-8888------------------------------------|
B|---3--2--1------------------------------------------------|

Then finish on

G|----------------------------------------------------------|
D|----------------------------------------------------------|
A|----------------------------------------------------------|
E|--------------66666666------------------------------------|
B|---88888888-----------------------------------------------|



Verse x1


G|----------------------------------------------------------|
D|----------------------------------------------------------|
A|-----------3/55555555-------------------------------------|
E|------------------------66666666--------------------------|
B|-3333333--------------------------66665555----------------|
 then (variation on end)
G|----------------------------------------------------------|
D|----------------------------------------------------------|
A|-----------3/55555555-------------------------------------|
E|------------------------66666666--------------------------|
B|-3333333--------------------------6--rest-----------------|

Chorus

G|-------------------------------------------------------------------------|
D|-------------------------------------------------------------------------|
A|-------------------------------------------------------------------------|
E|-----------------------------------8888888888888888-6666666666666666-----|
B|-3333333333333333-6666666666666666---------------------------------------|

G|-------------------------------------------------------------------------|
D|-------------------------------------------------------------------------|
A|-------------------------------------------------------------------------|
E|-----------------------------------8888888888888888-66666666-------------|
B|-3333333333333333-6666666666666666---------------------------------------|


Breakdown x3

G|----------------------------------------------------------|
D|----------------------------------------------------------|
A|----------------------------------------------------------|
E|--------------666-8888------------------------------------|
B|---3--2--1------------------------------------------------|

Then finish on

G|----------------------------------------------------------|
D|----------------------------------------------------------|
A|----------------------------------------------------------|
E|--------------66666666------------------------------------|
B|---88888888-------------3---------------------------------|



there may be some little off-bits here and there but this is the best I could do :D Any 
corrections are welcome and leave a comment on what you think!
comments
We did not receive enough feedback on this tab! Please rate:
print report bad tab
1 2 3 4 5
I want to post or [tab]
guest
You may want to rate the tab now too:
select rating
Please do not post tabs as comments. Select "correction" instead!