Oops, an error
Loading. Please wait.
We have an official All Signs Point To Lauderdale tab made by UG professional guitarists. Check out the tab »
×
4,439 views 9 this week
3 commentsread comments
1 2 3 4 5
x 3
add to favorites
launch autoscroll
font size
0
reset
guitar tuner
Autoscroll
slow
fast
+/-
esc
set tempo
stop
Author
Difficulty
Tuning
intermediate
C F A# D#
[Intro] (optional)
F|------------------------------------------------------------|
C|------------------------------------------------------------|
G|---------33333333------------------------33333333-----------|
C|-33333333--------777777775555555533333333--------55-055-05x-|

[Chorus 1]
F|----------------------------------------------------------------------|
C|----------------------------------------------------------------------|
G|--------3-33333333------------------------3-3333333/1010-888-777-5555-|
C|-3-3-333----------7-7-7775-555555553-3-333----------------------------|

[Verse]
F|--------------------------------------------------------------|
C|--------------------------------------------------------------|
G|--------------------------------------------------------------|
C|-33333-3-3----/77777-7-7----/33333-3-3----/77777-7-5-55555555-|

[Pre-Chorus 1]
F|--------------------------------------------------------|
C|--------------------------------------------------------|
G|--------------------------------------------------------|
C|-3333-33-3-3333-7777-75-5-5555-3333-33-3-3333-7777-75-5-|

[Chorus 2]
F|----------------------------------------------------------------------|
C|----------------------------------------------------------------------|
G|--------3-33333333------------------------3-3333333/1010-888-777-5555-|
C|-3-3-333----------7-7-7775-555555553-3-333----------------------------|

[Verse]
F|--------------------------------------------------------------|
C|--------------------------------------------------------------|
G|--------------------------------------------------------------|
C|-33333-3-3----/77777-7-7----/33333-3-3----/77777-7-5-55555555-|

[Pre-Chorus 2]
F|---------------------------------------------------------|
C|---------------------------------------------------------|
G|---------------------------------------------------------|
C|-3333-33-3-3333-7777-75-5-5555-3333-33-3-3333-77777775-5-|

[Chorus 3]
F|----------------------------------------------------------------------|
C|----------------------------------------------------------------------|
G|--------3-33333333------------------------3-3333333/1010-888-777-5555-|(x2)
C|-3-3-333----------7-7-7775-555555553-3-333----------------------------|

[Bridge]
F|-------------------------------------------------------------------------|
C|-------------------------------------------------------------------------|
G|-------------------------------------------------------------------------|
C|-77777777-77777777-55555555-55555555-33333333-33333333-33333333-33333333-|

F|---------------------------------------------------------------------------|
C|---------------------------------------------------------------------------|
G|---------------------------------------------------------------------------|
C|-77777-7777-55555-5555-33333-33333-3333333---------------------------------|

[Interlude]
F|---------12----12--12----12--910-|
C|-10101010--1010--10--1010--10----|
G|---------------------------------|(x3)
C|---------------------------------|

F|---------12----12--12--------------|
C|-10101010--1010--10--1010-12141210-|
G|-----------------------------------|
C|-----------------------------------|

[Chorus 3]
F|---------------------------------------------|
C|---------------------------------------------|
G|-----------------3-3333333/1010-888-777-5555-|
C|-55~-055~-3-3-333----------------------------|

[Chorus 3]
F|----------------------------------------------------------------------|
C|----------------------------------------------------------------------|
G|--------3-33333333------------------------3-3333333/1010-888-777-5555-|(x2)
C|-3-3-333----------7-7-7775-555555553-3-333----------------------------|

[Outro]
F|-------------|
C|-------------|
G|-------------| (x2)
C|-33333-3-3x--|



************************************

| x  Dead note
| /  Slide up
| ~  Vibrato

************************************
Suggest correction
Give kudos to tab author, rate the tab!
1 2 3 4 5
comments
print report bad tab
3 comments total.
0 reply
MsCreepyPasta 10 Jul 01, 2015 11:52 AM

Can you add the words, please? Thanks :)

0 reply
westboundbass 10 Apr 06, 2017 03:38 PM

Everything works with my version of the song (the one on youtube) except for the 3th chorus, its played once.

guest
You may want to rate the tab now too:
select rating
Wanna post a correction for this tab? Suggest correction