Oops, an error
Loading. Please wait.

All Signs Point To Lauderdale Tab

version 3
version 3

Whole song

Interactive

74,128 views 192 this week
7 commentsread comments
1 2 3 4 5
excellent!
x 46
add to favorites
launch autoscroll
font size
0
reset
how to read this tab
guitar tuner
Autoscroll
slow
fast
+/-
esc
set tempo
stop
Help us to improve Ultimate-Guitar.com Take our survey!
×
Author
Difficulty
Tuning
intermediate
C G C F A D
My first tab... awesum song!!!

(h) Hammer On  (/) Slide Up  (\) Slide Down  (.) Palm Mute

Drop C tuning

----------------------------------------------------------

[Intro]

D|--------------------------------------------------------------------|
A|--------------------------------------------------------------------|
F|-----------55555555----------------------------55555555-------------|
C|--33333333-55555555-77777777\55555555\33333333-55555555-55-555-55~--|
G|--33333333-33333333-77777777\55555555\33333333-33333333-55-555-55~--|
C|--33333333----------77777777\55555555\33333333----------55-555-55~--|
    ........ ........ ........ ........ ........ ........ .. ... .

[Chorus]

D|---------------------------------------------|
A|---------------------------------------------|
F|--7/9\7\55-5-5555-55-7/9\7\55-5-555/12-1212--|
C|--x/x\x\xx-x-xxxx-xx-x/x\x\xx-x-xxx/x--x-x---|
G|--5/7\5\33-3-3333-33-5/7\5\33-3-333/10-1010--|
C|---------------------------------------------|

D|---------------------------------------------------|
A|---------------------------------------------------|
F|--7/9\7\55-5-5555-55-7/9\7\51212-101010-999-77777--|
C|--x/x\x\xx-x-xxxx-xx-x/x\x\xx-x--x-x-x--xxx-xxxxx--|
G|--5/7\5\33-3-3333-33-5/7\5\31010-8-8-8--777-55555--|
C|---------------------------------------------------|

[Verse]

D|---------------------3--------------------------3--------|
A|-----------------------0--------------------------0------|
F|---------------5-4-5-----5---22222~-2~-2~-5-4-5-----5----|
C|--33333~-3~-3~---------------22222~-2~-2~----------------|
G|--33333~-3~-3~---------------00000~-0~-0~----------------|
C|--33333~-3~-3~-------------------------------------------|
    ....                       ....

D|---------------------3----------------------------|
A|-----------------------0--------------------------|
F|---------------5-4-5-----5---44444~-4~-4~----7-7--|
C|--33333~-3~-3~---------------44444~-4~-4~-555x-x--|
G|--33333~-3~-3~---------------22222~-2~-2~-5555-5--|
C|--33333~-3~-3~----------------------------555-----|
    ....                       ....         ...

[Chorus]

D|---------------------------------------------------|
A|---------------------------------------------------|
F|--6/121212-6/121212-7/9\7\5-6/121212-7777-7/9\7\5--|
C|--x/x-x-x--x/x-x-x--x/x\x\x-x/x-x-x--xxxx-x/x\x\x--|
G|--4/101010-4/101010-5/7\5\3-4/101010-5555-5/7\5\3--|
C|---------------------------------------------------|

D|-------------------------------------------|
A|-------------------------------------------|
F|--6/121212-6/121212-7/9\7\5-6/121212-7~7~--|
C|--x/x-x-x--x/x-x-x--x/x\x\x-x/x-x-x--x-x---|
G|--4/101010-4/101010-5/7\5\3-4/101010-5~5~--|
C|-------------------------------------------|

(Repeat Chorus)

(Repeat Verse)

(Repeat Prechorus)

INTRO VARIATION

D|-------------------------------------------------------------------------------|
A|-------------------------------------------------------------------------------|
F|-----------5-555555----------------------------5-555555------------------------|
C|--3-333333-5-555555-7-777777\5-555555\3-333333-5-555555-1212\101010\999\77777--|
G|--3-333333-3-333333-7-777777\5-555555\3-333333-3-333333-x-x-\x-x-x-\xxx\xxxxx--|
C|--3-333333----------7-777777\5-555555\3-333333----------1010\8-8-8-\777\55555--|

[Bridge]

D|-------------------------------------------------------------------------|
A|-------------------------------------------------------------------------|
F|-------------------------------------------------------------------------|
C|--7~77777777777777\5~55555555~555555\3~333333333333~-33~~33333333333333--|
G|--7~77777777777777\5~55555555~555555\3~333333333333~-33~~33333333333333--|
C|--7~77777777777777\5~55555555~555555\3~333333333333~-33~~33333333333333--|
      ..............   .......  ......   ...........       ..............

D|-----------------------------------------------------------------|
A|-----------------------------------------------------------------|
F|-----------------------------------------------------------------|
C|--77777~7---7-77777\55555~5---5-55555\33333~3---3-333333~~~~~~~~-|
G|--77777~7---7-77777\55555~5---5-55555\33333~3---3-333333~~~~~~~~-|
C|--77777~7---7-77777\55555~5---5-55555\33333~3---3-333333~~~~~~~~-|
    ....  .   . ..... ....  .   . ..... ....  .   . .....

D|--------------------------------------------------|
A|--------------------------------------------------|
F|--------------12-------12----12-------12----9h10--|
C|--10-10-10-10----10-10----10----10-10----10-------| (x4)
G|--------------------------------------------------|
C|--------------------------------------------------|

CHORUS VARIATION

D|------------------------------------------------------|
A|------------------------------------------------------|
F|--7-77-777755-5-5555-55-7/9\7\51212-101010-999-77777--|
C|--x-xx-xxxxxx-x-xxxx-xx-x/x\x\xx-x--x-x-x--xxx-xxxxx--|
G|--5-55-555533-3-3333-33-5/7\5\31010-8-8-8--777-55555--|
C|------------------------------------------------------|

(Repeat Intro Variation)

[Outro]

D|---------------------------------------------------------|
A|---------------------------------------------------------|
F|---------------------------------------------------------|
C|--33333~-3~3~---33333~-3~3~---33333~-3~3~---33333~-3~3~--|
G|--33333~-3~3~---33333~-3~3~---33333~-3~3~---33333~-3~3~--|
C|--33333~-3~3~---33333~-3~3~---33333~-3~3~---33333~-3~3~--|
    ....          ....          ....          ....



************************************

| x  Dead note
| h  Hammer-on

************************************
Suggest correction
comments
print report bad tab
7 comments total. Showing first comments.
0 reply
cainn 10 wrote on March 5 2013, 02:04 pm

Brilliant tab man :)

0 reply
JorgeValdivia99 190 wrote on February 15 2014, 08:49 pm

Good tab! :)

-1 reply
raush94 10 wrote on June 12 2014, 05:38 pm

You mention that it is in drop c but the tabs are in standard. Thought i would bring that to your attention because some people might get confused.

guest
You may want to rate the tab now too:
select rating
Please do not post tabs as comments. Select "correction" instead!