Oops, an error
Loading. Please wait.

All Signs Point To Launderdale Bass Tab

8,062 views 6 this week
no commentswrite comment
1 2 3 4 5
accurate
x 8
add to favorites
launch autoscroll
font size
0
reset
guitar tuner
Autoscroll
slow
fast
+/-
esc
set tempo
stop
Help us to improve Ultimate-Guitar.com Take our survey!
×
Author
Difficulty
Tuning
novice
C G C F A D
This is my first tab, probably not completely correct.

Drop C Tuning

-Guitar Intro-

Second Intro:

F:--------------------------------------------|
C:--------------------------------------------|
G:-------------3-3333333----------------------|
C:--3--3--333------------7-7--777---5-5555555-|

F:--------------------------------------------|
C:--------------------------------------------|
G:-------------3-3333333----------------------|
C:--3-33--333-------------5-5--3-5-5--3-5-5---|

F:---------------|
C:---------------|
G:---------------|
C:--3-5-5-5-5-5--|

Verse x2:

F:--------------------------------------------|
C:--------------------------------------------|
G:--------------------------------------------|
C:---33333-----3-3------------77777-----7-7---|

F:---------------|
C:---------------|
G:---------------|
C:---5-5-5-5-5---|

Pre-Chorus:

F:---------------------------| 
C:---------------------------|
G:---------------------------|
C:---3-3-3-3----3--3-3-33----|

F:---------------------------|
C:---------------------------|
G:---------------------------|
C:---7-7-7-7----5--5-5-55----|

F:---------------------------|
C:---------------------------|
G:---------------------------|
C:---3-3-3-3----3--3-3-33----|

F:---------------------------|
C:---------------------------|
G:---------------------------|
C:---7-7-7-7-7-7-7-7--5---5--|

Chorus:

F:--------------------------------------------|
C:--------------------------------------------|
G:-------------3-3333333----------------------|
C:--3--3--333------------7-7--777---5-5555555-|

F:--------------------------------------------|
C:--------------------------------------------|
G:-------------3-3333333----------------------|
C:--3-33--333-------------5-5--3-5-5--3-5-5---|

F:---------------|
C:---------------|
G:---------------|
C:--3-5-5-5-5-5--|

Verse x2:

F:--------------------------------------------|
C:--------------------------------------------|
G:--------------------------------------------|
C:---33333-----3-3------------77777-----7-7---|

F:---------------|
C:---------------|
G:---------------|
C:---5-5-5-5-5---|

Pre-Chorus:

F:---------------------------| 
C:---------------------------|
G:---------------------------|
C:---3-3-3-3----3--3-3-33----|

F:---------------------------|
C:---------------------------|
G:---------------------------|
C:---7-7-7-7----5--5-5-55----|

F:---------------------------|
C:---------------------------|
G:---------------------------|
C:---3-3-3-3----3--3-3-33----|

F:---------------------------|
C:---------------------------|
G:---------------------------|
C:---7-7-7-7-7-7-7-7--5---5--|
 
Chorus:

F:--------------------------------------------|
C:--------------------------------------------|
G:-------------3-3333333----------------------|
C:--3--3--333------------7-7--777---5-5555555-|

F:--------------------------------------------|
C:--------------------------------------------|
G:-------------3-3333333----------------------|
C:--3-33--333-------------5-5--3-5-5--3-5-5---|

F:---------------|
C:---------------|
G:---------------|
C:--3-5-5-5-5-5--|

Chorus Part 2:

F:---------------------------------------------|
C:---------------------------------------------|
G:------------3-3333333------------------------|
C:--3---33333------------7---77777---5-5555555-|

F:--------------------------------------------|
C:--------------------------------------------|
G:-------------3-3333333----------------------|
C:--3-33--333-------------5-5--3-5-5--3-5-5---|

F:---------------|
C:---------------|
G:---------------|
C:--3-5-5-5-5-5--|

Bridge:

There is no bass from 1:57 to 2:09

F:--------------------------------------------|
C:--------------------------------------------|
G:--------------------------------------------|
C:---7(Hold the note)-----5(Hold the note)----|

F:--------------------------------------------|
C:--------------------------------------------|
G:--------------------------------------------|
C:---3(Hold the note)---------------------3---|

Breakdown x2:

F:--------------------------------------------|
C:--------------------------------------------|
G:--------------------------------------------|
C:---3--3--3--3--33-------3---3333------------|

F:--------------------------------------------|
C:--------------------------------------------|
G:--------------------------------------------|
C:---5--5--5--5--55-------5---5555------------|

Final Chorus:

F:---------------------------------------------|
C:---------------------------------------------|
G:--------------------------------------5------|
C:---3-------------------------------55---55---|

F:--------------------------------------------|
C:--------------------------------------------|
G:-------------3-3333333----------------------|
C:--3-33--333-------------5-5--3-5-5--3-5-5---|

F:---------------|
C:---------------|
G:---------------|
C:--3-5-5-5-5-5--|

Chorus Part 2:

F:---------------------------------------------|
C:---------------------------------------------|
G:------------3-3333333------------------------|
C:--3---33333------------7---77777---5-5555555-|

F:--------------------------------------------|
C:--------------------------------------------|
G:-------------3-3333333----------------------|
C:--3-33--333-------------5-5--3-5-5--3-5-5---|

F:---------------|
C:---------------|
G:---------------|
C:--3-5-5-5-5-5--|

Ending x4:

F:-------------------|
C:-------------------|
G:-------------------|
C:---33333-----3-3---|

Suggest correction
What's this?
You can suggest a correction to this tab. Community and Mods will review your correction and vote to approve or reject it.
comments
print report bad tab
guest
You may want to rate the tab now too:
select rating
Please do not post tabs as comments. Select "correction" instead!