Oops, an error
Loading. Please wait.

Another Song About The Weekend Tab

version 2
version 2

Acoustic

Whole song

Interactive

14,753 views 6 this week
1 commentread comment
1 2 3 4 5
please rate
add to favorites
launch autoscroll
font size
0
reset
how to read this tab
guitar tuner
Autoscroll
slow
fast
+/-
esc
set tempo
stop
Help us to improve Ultimate-Guitar.com Take our survey!
×
Author
Tuning
D G C F A D
Another Song About the Weekend [Acoustic]

ACOUSTIC version
as performed by ymiadrummer on the YouTube.
http://www.youtube.com/watch?v=8kQn0JE8ka0
I didn't put in the palm mutes on the bridge, but I trust you can figure it out.

-----------------------------------------------------------------------------
                             Another Song About The Weekend - A Day to Remember
-----------------------------------------------------------------------------
Tabbed by: ymiadrummer

Tuning: D

Intro:
e|--------------------------------------------------------------------------|
B|--------------------------------------------------------------------------|
G|--------------------------------------------------------------------------|
D|0-0000---0---0-0-0000---0---0-0-0000---0---0-0-0000---0---0-0-0000---0---0|
A|------------------------------0-0000---0---0-0-0000---0---0-0-0000---0---0|
D|------------------------------0-0000---0---0-0-0000---0---0-0-0000---0---0|

             Verse:
e|--------------------------------------------------------------------------|
B|--------------------------------------------------------------------------|
G|----------------------------------------------7---------------------------|
D|7-5-4-2-------0-------------------------------5---------------------------|
A|7-5-4-2-------0-------------------------------5---------------------------|
D|7-5-4-2-------0-------------------------------5---------------------------|


e|----------------------------------------------------------------|
B|----------------------------------------------------------------|
G|7-------------------------------9---9-9-9-9-9-9-9-9-9-9-9-9-9-9-|
D|0-------------------------------7---7-7-7-7-7-7-7-7-7-7-7-7-7-7-|
A|0-------------------------------7---7-7-7-7-7-7-7-7-7-7-7-7-7-7-|
D|0-------------------------------7---7-7-7-7-7-7-7-7-7-7-7-7-7-7-|


e|----------------------------------------------------------------|
B|----------------------------------------------------------------|
G|--------------------------------7-7-7-7-7-7-7-7-7-7-7-7-7-7-7-7-|
D|0-0-0-0-0-0-0-0-0-0-0-0-0-0-0-0-5-5-5-5-5-5-5-5-5-5-5-5-5-5-5-5-|
A|0-0-0-0-0-0-0-0-0-0-0-0-0-0-0-0-5-5-5-5-5-5-5-5-5-5-5-5-5-5-5-5-|
D|0-0-0-0-0-0-0-0-0-0-0-0-0-0-0-0-5-5-5-5-5-5-5-5-5-5-5-5-5-5-5-5-|


e|----------------------------------------------------------------|
B|----------------------------------------------------------------|
G|7-7-7-7-7-7-7-7-7-7-7-7-7-7-7-7-9-9-9-9-9-9-9-9-9-9-9-9---------|
D|0-0-0-0-0-0-0-0-0-0-0-0-0-0-0-0-7-7-7-7-7-7-7-7-7-7-7-7-8-8-8-8-|
A|0-0-0-0-0-0-0-0-0-0-0-0-0-0-0-0-7-7-7-7-7-7-7-7-7-7-7-7-8-8-8-8-|
D|0-0-0-0-0-0-0-0-0-0-0-0-0-0-0-0-7-7-7-7-7-7-7-7-7-7-7-7-8-8-8-8-|

Pre-Chorus:
e|----------------------------------------------------------------|
B|----------------------------------------------------------------|
G|----------------------------------------------------------------|
D|9-9---9-9-9---9-9-9---9-121212121212--121212--121212--1212121212|
A|9-9---9-9-9---9-9-9---9-9-9-9-9-8-8---8-8-8---8-8-8---8-12121212|
D|9-9---9-9-9---9-9-9---9-9-9-9-9-8-8---8-8-8---8-8-8---8-12121212|


e|----------------------------------------------------------------|
B|----------------------------------------------------------------|
G|----------------------------------------------------------------|
D|5---5-5---5-5-5-4---4-4---4-4---5---5-5---5-5-5-7-7-7-7-7-7-7-7-|
A|5---5-5---5-5-5-4---4-4---4-4---5---5-5---5-5-5-7-7-7-7-7-7-7-7-|
D|5---5-5---5-5-5-4---4-4---4-4---5---5-5---5-5-5-7-7-7-7-7-7-7-7-|

Chorus:
||    e|----------------------------------------------------------------|
||    B|--------------------------------------------------------7-7-7-7-|
|| .  G|--------7-7-7-7-9-9-9-9-111111117-7-7-7-7-7-7-7-9-9-9-9-7-7-7-7-|
|| .  D|0-0-0-0-0-0-0-0-0-0-0-0-0-0-0-0-5-5-5-5-5-5-5-5-5-5-5-5-5-5-5-5-|
||    A|0-0-0-0-5-5-5-5-7-7-7-7-9-9-9-9-5-5-5-5-5-5-5-5-5-5-5-5-5-5-5-5-|
||    D|0-0-0-0-0-0-0-0-0-0-0-0-0-0-0-0-5-5-5-5-5-5-5-5-5-5-5-5-5-5-5-5-|


e|------------------------------------------------------------------|    ||
B|------------------------------------------------------------------|    ||
G|11111111111111119-9-9-9-9-9-9-9-7-7-7-7-7-7-7-7-7-7-7-7-7-7-7-7-7-|  . ||
D|9-9-9-9-9-9-9-9-7-7-7-7-7-7-7-7-5-5-5-5-5-5-5-5-5-5-5-5-5-5-5-5-5-|  . ||
A|9-9-9-9-9-9-9-9-7-7-7-7-7-7-7-7-5-5-5-5-5-5-5-5-5-5-5-5-5-5-5-5-5-|    ||
D|9-9-9-9-9-9-9-9-7-7-7-7-7-7-7-7-5-5-5-5-5-5-5-5-5-5-5-5-5-5-5-5-5-|    ||




Ritornello:
e|------------------------------|
B|------------------------------|
G|------------------------------|
D|0-00000---0---0-7-5-4-2-------|
A|0-00000---0---0-7-5-4-2-------|
D|0-00000---0---0-7-5-4-2-------|

Verse 2:
e|----------------------------------------------------------------|
B|----------------------------------------------------------------|
G|----------------------------------------------------------------|
D|0-0---0-0-0---0-0-0---0-0-0---0-5-5---5-5-5---5-5-5---5-5-5---5-|
A|0-0---0-0-0---0-0-0---0-0-0---0-5-5---5-5-5---5-5-5---5-5-5---5-|
D|0-0---0-0-0---0-0-0---0-0-0---0-5-5---5-5-5---5-5-5---5-5-5---5-|
  * *   * * *   * * *   * * *   * * *   * * *   * * *   * * *   *

e|----------------------------------------------------------------|
B|----------------------------------------------------------------|
G|----------------------------------------------------------------|
D|0-0---0-0-0---0-0-0---0-0-0---0-7-7---7-7-7---7-7-7---7-8-8-8-8-|
A|0-0---0-0-0---0-0-0---0-0-0---0-7-7---7-7-7---7-7-7---7-8-8-8-8-|
D|0-0---0-0-0---0-0-0---0-0-0---0-7-7---7-7-7---7-7-7---7-8-8-8-8-|
  * *   * * *   * * *   * * *   * * *   * * *   * * *   *

Pre-Chorus:
e|----------------------------------------------------------------|
B|----------------------------------------------------------------|
G|----------------------------------------------------------------|
D|9-9---9-9-9---9-9-9---9-121212121212--121212--121212--1212121212|
A|9-9---9-9-9---9-9-9---9-9-9-9-9-8-8---8-8-8---8-8-8---8-12121212|
D|9-9---9-9-9---9-9-9---9-9-9-9-9-8-8---8-8-8---8-8-8---8-12121212|


e|----------------------------------------------------------------|
B|----------------------------------------------------------------|
G|----------------------------------------------------------------|
D|5---5-5---5-5-5-4---4-4---4-4---5---5-5---5-5-5-7-7-7-7-7-7-7-7-|
A|5---5-5---5-5-5-4---4-4---4-4---5---5-5---5-5-5-7-7-7-7-7-7-7-7-|
D|5---5-5---5-5-5-4---4-4---4-4---5---5-5---5-5-5-7-7-7-7-7-7-7-7-|

Extension:
e|----------------------------------------------------------------|
B|----------------------------------------------------------------|
G|----------------------------------------------------------------|
D|9-9---9-9-11--111111--11121212121212--121212--121212--1212121212|
A|9-9---9-9-9---9-9-9---9-9-9-9-9-8-8---8-8-8---8-8-8---8-12121212|
D|9-9---9-9-9---9-9-9---9-9-9-9-9-8-8---8-8-8---8-8-8---8-12121212|


e|--------------------------------------------------------------|
B|--------------------------------------------------------------|
G|--------------------------------------------------------------|
D|5---------------4---------------5-------------7-7-7-7-7-7-7-7-|
A|5---------------4---------------5-------------7-7-7-7-7-7-7-7-|
D|5---------------4---------------5-------------7-7-7-7-7-7-7-7-|

Chorus:
||    e|----------------------------------------------------------------|
||    B|--------------------------------------------------------7-7-7-7-|
|| .  G|--------7-7-7-7-9-9-9-9-111111117-7-7-7-7-7-7-7-9-9-9-9-7-7-7-7-|
|| .  D|0-0-0-0-0-0-0-0-0-0-0-0-0-0-0-0-5-5-5-5-5-5-5-5-5-5-5-5-5-5-5-5-|
||    A|0-0-0-0-5-5-5-5-7-7-7-7-9-9-9-9-5-5-5-5-5-5-5-5-5-5-5-5-5-5-5-5-|
||    D|0-0-0-0-0-0-0-0-0-0-0-0-0-0-0-0-5-5-5-5-5-5-5-5-5-5-5-5-5-5-5-5-|


e|------------------------------------------------------------------|    ||
B|------------------------------------------------------------------|    ||
G|11111111111111119-9-9-9-9-9-9-9-7-7-7-7-7-7-7-7-7-7-7-7-7-7-7-7-7-|  . ||
D|9-9-9-9-9-9-9-9-7-7-7-7-7-7-7-7-5-5-5-5-5-5-5-5-5-5-5-5-5-5-5-5-5-|  . ||
A|9-9-9-9-9-9-9-9-7-7-7-7-7-7-7-7-5-5-5-5-5-5-5-5-5-5-5-5-5-5-5-5-5-|    ||
D|9-9-9-9-9-9-9-9-7-7-7-7-7-7-7-7-5-5-5-5-5-5-5-5-5-5-5-5-5-5-5-5-5-|    ||

Bridge:
e|--------------------------------------------------------------------------|
B|--------------------------------------------------------------------------|
G|------------------------9-11-9-7------------------------------------------|
D|0---------------------------------000-0-0-0-0-0-0-0-0-0-0-0-0-0--000-0-0-0|
A|0------------------------7-9-7-5--000-0-0-0-0-0-0-0-0-0-0-0-0-0--000-0-0-0|
D|0---------------------------------000-0-0-0-0-0-0-0-0-0-0-0-0-0--000-0-0-0|


e|--------------------------------------------------------------------------|
B|--------------------------------------------------------------------------|
G|----------------------777-7-7-7-7-7-7-7-7-7-7-7-7-7--777-7-7-7-7-7-7-7-7-7|
D|-0-0-0-0-0-0-0-0-0-5--555-5-5-5-5-5-5-5-5-5-5-5-5-5--555-5-5-5-5-5-5-5-5-5|
A|-0-0-0-0-0-0-0-0-0-5--555-5-5-5-5-5-5-5-5-5-5-5-5-5--555-5-5-5-5-5-5-5-5-5|
D|-0-0-0-0-0-0-0-0-0-5--555-5-5-5-5-5-5-5-5-5-5-5-5-5--555-5-5-5-5-5-5-5-5-5|


e|--------------------------------------------------------------------------|
B|--------------------------------------------------------------------------|
G|--------------------------------------------------------------------------|
D|-5-5-5-0--000-0-0-x-x-x-x-x-x-x-x-0-0-0-0--000-0-0-x-x-x-x-x-x-x-x-0-0-0-5|
A|-5-5-5-0--000-0-0-x-x-x-x-x-x-x-x-0-0-0-0--000-0-0-x-x-x-x-x-x-x-x-0-0-0-5|
D|-5-5-5-0--000-0-0-x-x-x-x-x-x-x-x-0-0-0-0--000-0-0-x-x-x-x-x-x-x-x-0-0-0-5|


                                                     Chorus Buildup:
e|--------------------------------------------------------------------------|
B|--------------------------------------------------------------------------|
G|--777-7-7-x-x-x-x-x-x-x-x-7-7-7-7--777-7-7-x-x-x-x-x-x-x-x----------------|
D|--555-5-5-x-x-x-x-x-x-x-x-5-5-5-5--555-5-5-x-x-x-x-x-x-x-x-7-5-4-0--------|
A|--555-5-5-x-x-x-x-x-x-x-x-5-5-5-5--555-5-5-x-x-x-x-x-x-x-x-7-5-4-0--------|
D|--555-5-5-x-x-x-x-x-x-x-x-5-5-5-5--555-5-5-x-x-x-x-x-x-x-x-7-5-4-0--------|



e|--------------------------------------------------------------------------|
B|--------------------------------------------------------------------------|
G|7-------------------------------7---------------7---------------7-7-7-7-7-|
D|5-------------------------------9---------------7---------------5-5-5-5-5-|
A|5-------------------------------9---------------7---------------5-5-5-5-5-|
D|5-------------------------------9---------------7---------------5-5-5-5-5-|



e|----------------------|
B|----------------------|
G|7-7-7-7-7-7-7-7-------|
D|5-5-5-5-5-5-5-5-------|
A|5-5-5-5-5-5-5-5-------|
E|5-5-5-5-5-5-5-5-------|


Chorus:
||    e|----------------------------------------------------------------|
||    B|--------------------------------------------------------7-7-7-7-|
|| .  G|--------7-7-7-7-9-9-9-9-111111117-7-7-7-7-7-7-7-9-9-9-9-7-7-7-7-|
|| .  D|0-0-0-0-0-0-0-0-0-0-0-0-0-0-0-0-5-5-5-5-5-5-5-5-5-5-5-5-5-5-5-5-|
||    A|0-0-0-0-5-5-5-5-7-7-7-7-9-9-9-9-5-5-5-5-5-5-5-5-5-5-5-5-5-5-5-5-|
||    D|0-0-0-0-0-0-0-0-0-0-0-0-0-0-0-0-5-5-5-5-5-5-5-5-5-5-5-5-5-5-5-5-|


e|------------------------------------------------------------------|    ||
B|------------------------------------------------------------------|    ||
G|11111111111111119-9-9-9-9-9-9-9-7-7-7-7-7-7-7-7-7-7-7-7-7-7-7-7-7-|  . ||
D|9-9-9-9-9-9-9-9-7-7-7-7-7-7-7-7-5-5-5-5-5-5-5-5-5-5-5-5-5-5-5-5-5-|  . ||  x3
A|9-9-9-9-9-9-9-9-7-7-7-7-7-7-7-7-5-5-5-5-5-5-5-5-5-5-5-5-5-5-5-5-5-|    ||
D|9-9-9-9-9-9-9-9-7-7-7-7-7-7-7-7-5-5-5-5-5-5-5-5-5-5-5-5-5-5-5-5-5-|    ||




Outro:
e|--------------------------------------------------------------------------|
B|--------------------------------------------------------------------------|
D|0-0000---0---0-0-0000---0---0-0-0000---0---0-7-5-4-2---0------------------|
A|------------------------------0-0000---0---0-7-5-4-2---0------------------|
D|------------------------------0-0000---0---0-7-5-4-2---0------------------|


************************************
|  *   palm mute
| /   slide up
| \   slide down
| h   hammer-on
| p   pull-off
| ~   vibrato
| +   harmonic
| x   Mute note
| b   Bend
| pb  Pre-bend
| br  Bend release
| pbr Pre-bend release
| brb Bend release bend

************************************
Suggest correction
What's this?
You can suggest a correction to this tab. Community and Mods will review your correction and vote to approve or reject it.
comments
We did not receive enough feedback on this tab! Please rate:
print report bad tab
1 2 3 4 5
1 comment total.
0 reply
pr_gax70 84 wrote on June 26 2011, 12:57 pm

Instead of just an open 4th string they play a D octave on the fifth string fifth fret. Not only is that how they play it but it sounds better.

guest
You may want to rate the tab now too:
select rating
Please do not post tabs as comments. Select "correction" instead!