Oops, an error
Loading. Please wait.

Another Song About The Weekend Acoustic Tab

version 3
version 3

Whole song

Interactive

32,254 views 150 this week
no commentswrite comment
1 2 3 4 5
excellent!
x 12
add to favorites
launch autoscroll
font size
0
reset
how to read this tab
guitar tuner
Tab Pro tools
  • play this tab
  • loop segment
  • change instrument
  • show fretboard
  • metronome
Autoscroll
slow
fast
+/-
esc
set tempo
stop
Contributor
Difficulty
Tuning
novice
C G C F A D
Another Song about the Weekend
A Day to Remember
Homesick (Deluxe Edition)

Tabbed by: Griff5516
Tuning: Drop C (C G C F A D)

Here's the tab for the acoustic version of Another Song about the Weekend. Enjoy!


Intro:

D |-------------------------
A |-------------------------
F |--7--7-7-7-7--7-7--7-----
C |--x--x-x-x-x--x-x--x----- x5
G |--5--5-5-5-5--5-5--5-----
C |-------------------------

  ----------------------|
  ----------------------|
  ----------------------|
  --7--5--4--2---0~-----|
  --7--5--4--2---0~-----|
  --7--5--4--2---0~-----|


Pre-Verse:

D |----------------------------------------
A |----------------------------------------
F |----------------------------------------
C |--5~----0~----7~----7-7-7-7-7-7-7-7-----
G |--5~----0~----7~----7-7-7-7-7-7-7-7-----
C |--5~----0~----7~----7-7-7-7-7-7-7-7-----
                         . .


Verse:

D |-----------------------|
A |-----------------------|
F |--7-------7------------|
C |--7---5---7---7--8-----|
G |--5---5---5---7--8-----|
C |--0---5---0---7--8-----|

The open C string on the first and third chords of the verse can be me muted, its 
just a preference.  Both sound good, it just has a deeper tone if you play it open (obviously)


Pre-chorus:

D |---------------------------------
A |---------------------------------
F |--7-7--7-7-7--7-7-7--7-14-14-----
C |--x-x--x-x-x--x-x-x--x--x--x----- x2
G |--5-5--5-5-5--5-5-5--5-12-12-----
C |---------------------------------

   ---------------------------------------------|
   ---------------------------------------------|
   --7~---6~---7~---14-14-14-14-14-14-14-14-----|
   --x~---x~---x~----x--x--x--x--x--x--x--x-----|
   --5~---4~---5~---12-12-12-12-12-12-12-12-----|
   ---------------------------------------------|


Chorus:

D |------------------------------------------
A |------------------------------------------
F |--7-7-7-7-7-7-7-7-9-9-9-9-11-11-11-11-----
C |--x-x-x-x-x-x-x-x-x-x-x-x--x--x--x--x----- x2
G |--5-5-5-5-5-5-5-5-7-7-7-7--9--9--9--9-----
C |------------------------------------------

   ---------------------------------------------------------------------------------------|
   ---------------------------------------------------------------------------------------|
   --14-14-14-14-14-14-14-14-12-12-12-12-11-11-11-11-7-7-7-7-7-7-7-7-7-7-7-7-9/11/9/7-----|
   ---x--x--x--x--x--x--x--x--x--x--x--x--x--x--x--x-x-x-x-x-x-x-x-x-x-x-x-x-x/-x/x/x-----|  
   --12-12-12-12-12-12-12-12-10-10-10-10--9--9--9--9-5-5-5-5-5-5-5-5-5-5-5-5-7/-9/7/5-----|
   ---------------------------------------------------------------------------------------|
*repeat entire chorus one more time*

 Pre-Verse:

D |-----------------------------------
A |-----------------------------------
F |--7--7-7-7-7--7-7--7---------------
C |--x--x-x-x-x--x-x--x--7--5--4--2---
G |--5--5-5-5-5--5-5--5--7--5--4--2---
C |----------------------7--5--4--2---


Verse:

D |-------------------------------------------------------------|
A |-------------------------------------------------------------|
F |-------------------------------------------------------------|
C |------------------------------5-5--5-5-5--5-5-5--5-5-5--5----|
G |--0-0--0-0-0--0-0-0--0-0-0--0-5-5--5-5-5--5-5-5--5-5-5--5-0-0|
C |--0-0--0-0-0--0-0-0--0-0-0--0-5-5--5-5-5--5-5-5--5-5-5--5-0-0|

---------------------------------------------------------|
---------------------------------------------------------|
-------------------------------------6-6-6-6-6/7-7-7-----|
-------------------------7-7--7-7-7--x-x-x-x-x/x-x-x-----|
--0-0-0--0-0-0--0-0-0--0-7-7--7-7-7--4-4-4-4-4/5-5-5-----|
--0-0-0--0-0-0--0-0-0--0-7-7--7-7-7----------------------|
     . .  . . .  . . .  . . .  . . .  . . .  . . .  . . .  . . .  


**Repeat pre-chorus twice, then play through chorus twice**


Breakdown:

D |------------------------
A |------------------------
F |--9/11/9/7--x-x-x-x-----
C |--x/-x/x/x--x-x-x-x-----
G |--7/-9/7/5--x-x-x-x-----
C |------------x-x-x-x-----

   ----------------------------------------------------------
   ----------------------------------------------------------
   --7--7-7-7--7-7-7-7-7-7--x-x-x-x--7--7-7-7--7-7-7-7-7-----
   --x--x-x-x--x-x-x-x-x-x--x-x-x-x--x--x-x-x--x-x-x-x-x-----
   --5--5-5-5--5-5-5-5-5-5--x-x-x-x--5--5-5-5--5-5-5-5-5-----
   -------------------------x-x-x-x--------------------------

   ------------------------------------------------------------------------------------------|
   ------------------------------------------------------------------------------------------|
   --12--x-x-x-x--12--12-12-12--12-12-12-12-12-12--x-x-x-x--12--12-12-12--12-12-12-12-12-----|
   ---x--x-x-x-x---x---x--x--x---x--x--x--x--x--x--x-x-x-x---x---x--x--x---x--x--x--x--x-----| x2
   --10--x-x-x-x--10--10-10-10--10-10-10-10-10-10--x-x-x-x--10--10-10-10--10-10-10-10-10-----|
   ------x-x-x-x-----------------------------------x-x-x-x-----------------------------------|
 (don't repeat first part of breakdown on the second time through)

D |----------------------------------------------------------------|
A |----------------------------------------------------------------|
F |--7~---12~---16--14--12-12-12-12-12-12-12-12-12-12-12-12-12-----|
C |--x~----x~----x---x---x--x--x--x--x--x--x--x--x--x--x--x--x-----| x1
G |--5~---10~---14--12--10-10-10-10-10-10-10-10-10-10-10-10-10-----|
C |----------------------------------------------------------------|
                           .  .  .  .  .  .  .  .  .  


       **Repeat Chorus progression x3**


Ending:

D |-------------------------
A |-------------------------
F |--7--7-7-7-7--7-7--7-----
C |--x--x-x-x-x--x-x--x----- x3
G |--5--5-5-5-5--5-5--5-----
C |-------------------------

  ----------------------|
  ----------------------|
  ---------------7~~----|
  --7--5--4--2---7~~----|
  --7--5--4--2---5~~----|
  --7--5--4--2---0~~----|


That's it! Hope it Helps, please rate!
comments
print report bad tab
I want to post or [tab]
guest
You may want to rate the tab now too:
select rating
Please do not post tabs as comments. Select "correction" instead!