Oops, an error
Loading. Please wait.

Bad Vibrations album tab

version 1
version 1

Album

Whole song

Interactive

304 views 15 this week
1 commentread comment
1 2 3 4 5
1 last vote to show rating
add to favorites
×
Save as Personal and add changes to this tab that will be seen only by you. Learn more ›
×
You can save this tab as Personal to edit and correct it or add notes. All changes will be seen only by you. Learn more »
launch autoscroll
font size
0
reset
how to read this tab
guitar tuner
edit
Autoscroll
slow
fast
+/-
esc
set tempo
stop
This album tab is created by LivingDead31.

Artist: A Day To Remember
Album: Bad Vibrations
Year: 2016


Special thanks to
-Andrew Baena
-cameronjlapp
-Monique T.

If you have some time, please check out their YouTube channel/Ultimate-guitar profile.

Tuning:
-Drop C
-Drop B
-Drop A#



1. Bad Vibrations



[Intro]:


C#|----------------------------------------------------------------------------------------|
G#|----------------11--------------------------------------------------------11------------|
E |----------------14--------------------------------------------------------14------------|
B |---------------------------------------------1----------4-------------------------------|
F#|--0-0-0-0--0-0------0-0-0-0----0-0-0-0--0-0--1--0-0-0-0-4---0-0-0-0--0-0------0-0-0-0---|
B |--0-0-0-0--0-0------0-0-0-0----0-0-0-0--0-0--1--0-0-0-0-4---0-0-0-0--0-0------0-0-0-0---|
     . . . .  . .      . . . .    . . . .  . .     . . . .     . . . .  . .      . . . .


C#|-------------------------------|
G#|-------------------------------|
E |-------------------------------|
B |--8-8-8-8--8-8--5-5-5-5--5-5---|
F#|--8-8-8-8--8-8--5-5-5-5--5-5---|
B |--8-8-8-8--8-8--5-5-5-5--5-5---|


C#|----------------------------------------------------------------------------------------|
G#|----------------11--------------------------------------------------------11------------|
E |----------------14--------------------------------------------------------14------------|
B |---------------------------------------------1----------4-------------------------------|
F#|--0-0-0-0--0-0------0-0-0-0----0-0-0-0--0-0--1--0-0-0-0-4---0-0-0-0--0-0------0-0-0-0---|
B |--0-0-0-0--0-0------0-0-0-0----0-0-0-0--0-0--1--0-0-0-0-4---0-0-0-0--0-0------0-0-0-0---|
     . . . .  . .      . . . .    . . . .  . .     . . . .     . . . .  . .      . . . .


C#|-------------------------------------|
G#|-------------------------------------|
E |-------------------------------------|
B |--5-5-5-5--5-5--11-11-11-11--11-11---|
F#|--5-5-5-5--5-5--11-11-11-11--11-11---|
B |--5-5-5-5--5-5--11-11-11-11--11-11---|


[Verse]:


C#|---------------------------------------------------------------------------------------------|
G#|---------------------------------------------------------------------------------------------|
E |---------------------------------------------------------------------------------------------|
B |--12-12-12-12-12-12-12-12-12-12-12-12-12-12-12-12-12-12-12-12-12-12-12-12--5-5-5-5-5-5-5-5---|
F#|--12-12-12-12-12-12-12-12-12-12-12-12-12-12-12-12-12-12-12-12-12-12-12-12--5-5-5-5-5-5-5-5---|
B |--12-12-12-12-12-12-12-12-12-12-12-12-12-12-12-12-12-12-12-12-12-12-12-12--5-5-5-5-5-5-5-5---|


C#|-------------------------------------------------------------|
G#|-------------------------------------------------------------|
E |-------------------------------------------------------------|
B |--8-8-8-8-8-8-8-8-8-8-8-8-8-8-8-8--11-11-11-11-11-11-11-11---|
F#|--8-8-8-8-8-8-8-8-8-8-8-8-8-8-8-8--11-11-11-11-11-11-11-11---|
B |--8-8-8-8-8-8-8-8-8-8-8-8-8-8-8-8--11-11-11-11-11-11-11-11---|


C#|---------------------------------------------------------------------------------------------|
G#|---------------------------------------------------------------------------------------------|
E |---------------------------------------------------------------------------------------------|
B |--12-12-12-12-12-12-12-12-12-12-12-12-12-12-12-12-12-12-12-12-12-12-12-12--5-5-5-5-5-5-5-5---|
F#|--12-12-12-12-12-12-12-12-12-12-12-12-12-12-12-12-12-12-12-12-12-12-12-12--5-5-5-5-5-5-5-5---|
B |--12-12-12-12-12-12-12-12-12-12-12-12-12-12-12-12-12-12-12-12-12-12-12-12--5-5-5-5-5-5-5-5---|


C#|-----------------------------------------------------|
G#|-----------------------------------------------------|
E |-----------------------------------------------------|
B |--8-8-8-8-8-8-8-8-8-8-8-8-8-8-8-8--7-7-7-7-7-7-7-7---|
F#|--8-8-8-8-8-8-8-8-8-8-8-8-8-8-8-8--7-7-7-7-7-7-7-7---|
B |--8-8-8-8-8-8-8-8-8-8-8-8-8-8-8-8--7-7-7-7-7-7-7-7---|


[Pre-Chorus]:


C#|-----------------------------------------------------------------|
G#|-----------------------------------------------------------------|
E |-----------------------------------------------------------------|
B |-----------------------------------------------------------------|
F#|----------5--------------5---------------8-------------8-7-7-7---|
B |--8-8-8-8----8-8-8-8-8-----8-8-8--5-5-5-5---5-5-5-5-5------------|
     . . . .    . . . . .            . . . .   . . . . .


C#|--------------------------------------------------------------------|
G#|--------------------------------------------------------------------|
E |--------------------------------------------------------------------|
B |-----------------------------------------------------5-7-5----------|
F#|----------8-------------8-7-7-7-----------8------7-8--------8-7-8---|
B |--0-0-0-0----0-0-0-0-0-----------3-3-3-3----3-3---------------------|
     . . . .    . . . . .           . . . .    . .


C#|--------------------------------------------------------------|
G#|--------------------------------------------------------------|
E |--------------------------------------------------------------|
B |-------------------------------------------------8--8--7--7---|
F#|----------5--------------5---------------8-------8--8--7--7---|
B |--8-8-8-8----8-8-8-8-8-----8-8-8--5-5-5-5---5-5--8--8--7--7---|
     . . . .    . . . . .            . . . .   . . 


[Chorus]:


C#|----------------------------------------------------------------------|
G#|----------------------------------------------------------------------|
E |----------------------------------------------------------------------|
B |--8-8-8-8-8-8-8-8-8-8-8-8-8-8-8-8--0-0-0-0-0-0-0-0--3-3-3-3-3-3-3-3---|
F#|--8-8-8-8-8-8-8-8-8-8-8-8-8-8-8-8--0-0-0-0-0-0-0-0--3-3-3-3-3-3-3-3---|
B |--8-8-8-8-8-8-8-8-8-8-8-8-8-8-8-8--0-0-0-0-0-0-0-0--3-3-3-3-3-3-3-3---|



C#|------------------------------------------------------------------------------|
G#|------------------------------------------------------------------------------|
E |------------------------------------------------------------------------------|
B |--8-8-8-8-8-8-8-8-8-8-8-8-8-8-8-8--0-0-0-0-0-0-0-0--10-10-10-10-10-10-10-10---|
F#|--8-8-8-8-8-8-8-8-8-8-8-8-8-8-8-8--0-0-0-0-0-0-0-0--10-10-10-10-10-10-10-10---|
B |--8-8-8-8-8-8-8-8-8-8-8-8-8-8-8-8--0-0-0-0-0-0-0-0--10-10-10-10-10-10-10-10---|


[Post-Chorus]:


C#|------------------------------------|
G#|--3-3-3-3-3-3-3-3-3-3-3-3-3-3-3-3---|
E |--2-2-2-2-2-2-2-2-2-2-2-2-2-2-2-2---|
B |--0-0-0-0-0-0-0-0-0-0-0-0-0-0-0-0---|
F#|------------------------------------|
B |------------------------------------|


[Verse]:


C#|------|
G#|------|
E |--7---|
B |--x---|
F#|--5---|
B |------|


C#|---------------------------------------------------------------------------|
G#|---------------------------------------------------------------------------|
E |---------------------------------------------------------------------------|
B |--0-0-0--0-0---0-0-0--0-0---5-5-5--5-5---8-8-8--8-8---8-8-8--8-8----8--7---|
F#|--0-0-0--0-0---0-0-0--0-0---5-5-5--5-5---8-8-8--8-8---8-8-8--8-8----8--7---|
B |--0-0-0--0-0---0-0-0--0-0---5-5-5--5-5---8-8-8--8-8---8-8-8--8-8----8--7---|
     . . .        . . .        . . .        . . .        . . . 


[Pre-Chorus]:


C#|-----------------------------------------------------------------|
G#|-----------------------------------------------------------------|
E |-----------------------------------------------------------------|
B |-----------------------------------------------------------------|
F#|----------5--------------5---------------8-------------8-7-7-7---|
B |--8-8-8-8----8-8-8-8-8-----8-8-8--5-5-5-5---5-5-5-5-5------------|
     . . . .    . . . . .            . . . .   . . . . .


C#|--------------------------------------------------------------------|
G#|--------------------------------------------------------------------|
E |--------------------------------------------------------------------|
B |-----------------------------------------------------5-7-5----------|
F#|----------8-------------8-7-7-7-----------8------7-8--------8-7-8---|
B |--0-0-0-0----0-0-0-0-0-----------3-3-3-3----3-3---------------------|
     . . . .    . . . . .           . . . .    . .


C#|--------------------------------------------------------------|
G#|--------------------------------------------------------------|
E |--------------------------------------------------------------|
B |-------------------------------------------------8--8--7--7---|
F#|----------5--------------5---------------8-------8--8--7--7---|
B |--8-8-8-8----8-8-8-8-8-----8-8-8--5-5-5-5---5-5--8--8--7--7---|
     . . . .    . . . . .            . . . .   . . 


[Chorus]:


C#|----------------------------------------------------------------------|
G#|----------------------------------------------------------------------|
E |----------------------------------------------------------------------|
B |--8-8-8-8-8-8-8-8-8-8-8-8-8-8-8-8--0-0-0-0-0-0-0-0--3-3-3-3-3-3-3-3---|
F#|--8-8-8-8-8-8-8-8-8-8-8-8-8-8-8-8--0-0-0-0-0-0-0-0--3-3-3-3-3-3-3-3---|
B |--8-8-8-8-8-8-8-8-8-8-8-8-8-8-8-8--0-0-0-0-0-0-0-0--3-3-3-3-3-3-3-3---|


C#|------------------------------------------------------------------------------|
G#|------------------------------------------------------------------------------|
E |------------------------------------------------------------------------------|
B |--8-8-8-8-8-8-8-8-8-8-8-8-8-8-8-8--0-0-0-0-0-0-0-0--10-10-10-10-10-10-10-10---|
F#|--8-8-8-8-8-8-8-8-8-8-8-8-8-8-8-8--0-0-0-0-0-0-0-0--10-10-10-10-10-10-10-10---|
B |--8-8-8-8-8-8-8-8-8-8-8-8-8-8-8-8--0-0-0-0-0-0-0-0--10-10-10-10-10-10-10-10---|


C#|-----------------------|
G#|-----------------------|
E |-----------------------|
B |------8-----x--x-x-x---|
F#|----8---8---x--x-x-x---|
B |--8-------8-x--x-x-x---|


C#|----------------------------------------------------------------------|
G#|----------------------------------------------------------------------|
E |----------------------------------------------------------------------|
B |--8-8-8-8-8-8-8-8-8-8-8-8-8-8-8-8--0-0-0-0-0-0-0-0--3-3-3-3-3-3-3-3---|
F#|--8-8-8-8-8-8-8-8-8-8-8-8-8-8-8-8--0-0-0-0-0-0-0-0--3-3-3-3-3-3-3-3---|
B |--8-8-8-8-8-8-8-8-8-8-8-8-8-8-8-8--0-0-0-0-0-0-0-0--3-3-3-3-3-3-3-3---|


C#|------------------------------------------------------------------------------|
G#|------------------------------------------------------------------------------|
E |------------------------------------------------------------------------------|
B |--8-8-8-8-8-8-8-8-8-8-8-8-8-8-8-8--0-0-0-0-0-0-0-0--10-10-10-10-10-10-10-10---|
F#|--8-8-8-8-8-8-8-8-8-8-8-8-8-8-8-8--0-0-0-0-0-0-0-0--10-10-10-10-10-10-10-10---|
B |--8-8-8-8-8-8-8-8-8-8-8-8-8-8-8-8--0-0-0-0-0-0-0-0--10-10-10-10-10-10-10-10---|


[Verse 3]:


C#|------------------------------------------------------------------|
G#|--4--4---4-4---4--4-4---4-4-4-4---4--4---4-4---4--4-4---4-4-4-4---|
E |--7--7---7-7---7--7-7---7-7-7-7---7--7---7-7---7--7-7---7-7-7-7---|
B |------------------------------------------------------------------|
F#|------------------------------------------------------------------|
B |------------------------------------------------------------------|


C#|----------------------------------|
G#|--4--4---4-4---4--4-4---4-4-4-4---|
E |--7--7---7-7---7--7-7---7-7-7-7---|
B |----------------------------------|
F#|----------------------------------|
B |----------------------------------|


C#|----------------------------------------------|
G#|----------------------------------------------|
E |----------------------------------------------|
B |--0-0---0-0--0-0-0-0--0-0--0-0-0-0---0----0---|
F#|--0-0---0-0--0-0-0-0--0-0--0-0-0-0---0----0---|
B |--0-0---0-0--0-0-0-0--0-0--0-0-0-0---0----0---|
     . .   . .  . . . .  . .  . . . .   .    .


C#|------------------------------------------------------------------|
G#|------------------------------------------------------------------|
E |------------------------------------------------------------------|
B |--0-0---0-0---0-0----0-0---0-0-----0-0---0-0---0-0----0-0---0-0---|
F#|--0-0---0-0---0-0----0-0---0-0-----0-0---0-0---0-0----0-0---0-0---|
B |--0-0---0-0---0-0----0-0---0-0-----0-0---0-0---0-0----0-0---0-0---|
     . .   . .   . .    . .   . .     . .   . .   . .    . .   . .


C#|------------------------------------------------------------|
G#|------------------------------------------------------------|
E |------------------------------------------------------------|
B |--0-0---0-0--------0-0---0-0---0-0-----0-0---0-0---0-0------|
F#|--0-0---0-0--------0-0---0-0---0-0-----0-0---0-0---0-0------|
B |--0-0---0-0---1b---0-0---0-0---0-0-----0-0---0-0---0-0--\---|
     . .   . .        . .   . .   . .     . .   . .   . .


C#|-------------------------------------------------------------------------------------------|
G#|-------------------------------------------------------------------------------------------|
E |-------------------------------------------------------------------------------------------|
B |-------------------------------------------------------------------------------------------|
F#|-------------------------------------------------------------------------------------------|
B |--12h13p12p0-12p0-12h13p12p0-12p0-10h12p10p0--12h13p12p0-12p0-12h13p12p0-12p0-10h13p10p0---|


C#|-----------------------------------------------------------------------------|
G#|-----------------------------------------------------------------------------|
E |-----------------------------------------------------------------------------|
B |---------------------------------------------------------------------4---1---|
F#|---------------------------------------------------------------------4---1---|
B |--12h13p12p0-12p0-12h13p12p0-12p0-10h12p10p0--12h13p12p0-12p0-10h12--4---1---|


[Outro]:


C#|-----------------------------------------------------------------------|
G#|-----------------------------------------------------------------------|
E |-----------------------------------------------------------------------|
B |--0-0---0-0---0-0----0-0---0-0-----0-0---0-0---0-0----0-0---0-0---0~---|
F#|--0-0---0-0---0-0----0-0---0-0-----0-0---0-0---0-0----0-0---0-0---0~---|
B |--0-0---0-0---0-0----0-0---0-0-----0-0---0-0---0-0----0-0---0-0---0~---|
     . .   . .   . .    . .   . .     . .   . .   . .    . .   . .







2. Paranoia



[Intro]:


C#|---------------------------------------------------------------|
G#|--------------8--------------8--------------8--------------8---|
E |--11-11-11-11----11-11-11-11----11-11-11-11----11-11-11-11-----|
B |---------------------------------------------------------------|
F#|---------------------------------------------------------------|
B |---------------------------------------------------------------|


C#|-----------------------------------------------|
G#|-----------------------------------------------|
E |-----------------------------------------------|
B |--4-4-4-4-5--4-4-4-4-5--4-4-4-4-5--4-4-4-4-5---|
F#|--4-4-4-4-5--4-4-4-4-5--4-4-4-4-5--4-4-4-4-5---|
B |--4-4-4-4-5--4-4-4-4-5--4-4-4-4-5--4-4-4-4-5---|


[Verse]:


C#|---------------------------------------------------------------|
G#|--------------8--------------8--------------8--------------8---|
E |--11-11-11-11----11-11-11-11----11-11-11-11----11-11-11-11-----|
B |---------------------------------------------------------------|
F#|---------------------------------------------------------------|
B |---------------------------------------------------------------|


C#|-----------------------------------------------|
G#|-----------------------------------------------|
E |-----------------------------------------------|
B |--4-4-4-4-5--4-4-4-4-5--4-4-4-4-5--4-4-4-4-5---|
F#|--4-4-4-4-5--4-4-4-4-5--4-4-4-4-5--4-4-4-4-5---|
B |--4-4-4-4-5--4-4-4-4-5--4-4-4-4-5--4-4-4-4-5---|


C#|---------------------------------------------------------------|
G#|--------------8--------------8--------------8--------------8---|
E |--11-11-11-11----11-11-11-11----11-11-11-11----11-11-11-11-----|
B |---------------------------------------------------------------|
F#|---------------------------------------------------------------|
B |---------------------------------------------------------------|


C#|-----------------------------------------------|
G#|-----------------------------------------------|
E |-----------------------------------------------|
B |--4-4-4-4-5--4-4-4-4-5--4-4-4-4-5--4-4-4-4-5---|
F#|--4-4-4-4-5--4-4-4-4-5--4-4-4-4-5--4-4-4-4-5---|
B |--4-4-4-4-5--4-4-4-4-5--4-4-4-4-5--4-4-4-4-5---|


C#|---------------------------------------------------------------|
G#|--------------8--------------8--------------8--------------8---|
E |--11-11-11-11----11-11-11-11----11-11-11-11----11-11-11-11-----|
B |---------------------------------------------------------------|
F#|---------------------------------------------------------------|
B |---------------------------------------------------------------|


C#|-----------------------------------------------|
G#|-----------------------------------------------|
E |-----------------------------------------------|
B |--4-4-4-4-5--4-4-4-4-5--4-4-4-4-5--4-4-4-4-5---|
F#|--4-4-4-4-5--4-4-4-4-5--4-4-4-4-5--4-4-4-4-5---|
B |--4-4-4-4-5--4-4-4-4-5--4-4-4-4-5--4-4-4-4-5---|


C#|---------------------------------------------------------------|
G#|--------------8--------------8--------------8--------------8---|
E |--11-11-11-11----11-11-11-11----11-11-11-11----11-11-11-11-----|
B |---------------------------------------------------------------|
F#|---------------------------------------------------------------|
B |---------------------------------------------------------------|


C#|-----------------------------------------------|
G#|-----------------------------------------------|
E |-----------------------------------------------|
B |--4-4-4-4-5--4-4-4-4-5--4-4-4-4-5--4-4-4-4-5---|
F#|--4-4-4-4-5--4-4-4-4-5--4-4-4-4-5--4-4-4-4-5---|
B |--4-4-4-4-5--4-4-4-4-5--4-4-4-4-5--4-4-4-4-5---|


[Pre-Chorus]:


C#|-------------------------------------|
G#|-------------------------------------|
E |-------------------------------------|
B |--0-0-0-0-0-0-0-0--2-2-2-2-2-2-2-2---|
F#|--0-0-0-0-0-0-0-0--2-2-2-2-2-2-2-2---|
B |--0-0-0-0-0-0-0-0--2-2-2-2-2-2-2-2---|


C#|-----------------------------------------------|
G#|-----------------------------------------------|
E |-----------------------------------------------|
B |--4-4-4-4-5--4-4-4-4-5--4-4-4-4-5--4-4-4-4-5---|
F#|--4-4-4-4-5--4-4-4-4-5--4-4-4-4-5--4-4-4-4-5---|
B |--4-4-4-4-5--4-4-4-4-5--4-4-4-4-5--4-4-4-4-5---|


C#|-------------------------------|
G#|-------------------------------|
E |-------------------------------|
B |--0-0-0-0-0-0-0-0--2-2-2-2-2---|
F#|--0-0-0-0-0-0-0-0--2-2-2-2-2---|
B |--0-0-0-0-0-0-0-0--2-2-2-2-2---|


[Chorus]:


C#|-------------------------------------------------------------------------|
G#|-------------------------------------------------------------------------|
E |-------------------------------------------------------------------------|
B |--4-4-4-4-4-4-4-4--7-7-7-7-7-7-7-7--2-2-2-2-2-2-2-2-2-2-2-2-2-2--7-7-7---|
F#|--4-4-4-4-4-4-4-4--5-5-5-5-5-5-5-5--2-2-2-2-2-2-2-2-2-2-2-2-2-2--7-7-7---|
B |--4-4-4-4-4-4-4-4-------------------2-2-2-2-2-2-2-2-2-2-2-2-2-2--7-7-7---|


C#|------------------------------------------------------------------------|
G#|------------------------------------------------------------------------|
E |------------------------------------------------------------------------|
B |--4-4-4-4-4-4-4-4--7-7-7-7-7-7-7-7--2-2-2-2-2-2-2-2-2-2-2-2-2-2--7--7---|
F#|--4-4-4-4-4-4-4-4--5-5-5-5-5-5-5-5--2-2-2-2-2-2-2-2-2-2-2-2-2-2--7--7---|
B |--4-4-4-4-4-4-4-4-------------------2-2-2-2-2-2-2-2-2-2-2-2-2-2--7--7---|


[Verse 2]:


C#|-----------------------------------------------|
G#|-----------------------------------------------|
E |-----------------------------------------------|
B |--4-4-4-4-5--4-4-4-4-5--4-4-4-4-5--4-4-4-4-5---|
F#|--4-4-4-4-5--4-4-4-4-5--4-4-4-4-5--4-4-4-4-5---|
B |--4-4-4-4-5--4-4-4-4-5--4-4-4-4-5--4-4-4-4-5---|


C#|-----------------------------------------------|
G#|-----------------------------------------------|
E |-----------------------------------------------|
B |--4-4-4-4-5--4-4-4-4-5--4-4-4-4-5--4-4-4-4-5---|
F#|--4-4-4-4-5--4-4-4-4-5--4-4-4-4-5--4-4-4-4-5---|
B |--4-4-4-4-5--4-4-4-4-5--4-4-4-4-5--4-4-4-4-5---|


C#|-------------------------------------------------|
G#|-------------------------------------------------|
E |-------------------------------------------------|
B |----4-4-4-4-5--4-4-4-4-5--4-4-4-4-5--4-4-4-4-5---|
F#|----4-4-4-4-5--4-4-4-4-5--4-4-4-4-5--4-4-4-4-5---|
B |--/-4-4-4-4-5--4-4-4-4-5--4-4-4-4-5--4-4-4-4-5---|


C#|---------------------------------------------------------------|
G#|--------------8--------------8--------------8--------------8---|
E |--11-11-11-11----11-11-11-11----11-11-11-11----11-11-11-11-----|
B |---------------------------------------------------------------|
F#|---------------------------------------------------------------|
B |---------------------------------------------------------------|


C#|-----------------------------------------------|
G#|-----------------------------------------------|
E |-----------------------------------------------|
B |--4-4-4-4-5--4-4-4-4-5--4-4-4-4-5--4-4-4-4-5---|
F#|--4-4-4-4-5--4-4-4-4-5--4-4-4-4-5--4-4-4-4-5---|
B |--4-4-4-4-5--4-4-4-4-5--4-4-4-4-5--4-4-4-4-5---|


C#|---------------------------------------------------------------|
G#|--------------8--------------8--------------8--------------8---|
E |--11-11-11-11----11-11-11-11----11-11-11-11----11-11-11-11-----|
B |---------------------------------------------------------------|
F#|---------------------------------------------------------------|
B |---------------------------------------------------------------|


C#|-----------------------------------------------|
G#|-----------------------------------------------|
E |-----------------------------------------------|
B |--4-4-4-4-5--4-4-4-4-5--4-4-4-4-5--4-4-4-4-5---|
F#|--4-4-4-4-5--4-4-4-4-5--4-4-4-4-5--4-4-4-4-5---|
B |--4-4-4-4-5--4-4-4-4-5--4-4-4-4-5--4-4-4-4-5---|


[Pre-Chorus]:


C#|-------------------------------------|
G#|-------------------------------------|
E |-------------------------------------|
B |--0-0-0-0-0-0-0-0--2-2-2-2-2-2-2-2---|
F#|--0-0-0-0-0-0-0-0--2-2-2-2-2-2-2-2---|
B |--0-0-0-0-0-0-0-0--2-2-2-2-2-2-2-2---|


C#|-----------------------------------------------|
G#|-----------------------------------------------|
E |-----------------------------------------------|
B |--4-4-4-4-5--4-4-4-4-5--4-4-4-4-5--4-4-4-4-5---|
F#|--4-4-4-4-5--4-4-4-4-5--4-4-4-4-5--4-4-4-4-5---|
B |--4-4-4-4-5--4-4-4-4-5--4-4-4-4-5--4-4-4-4-5---|


C#|-------------------------------|
G#|-------------------------------|
E |-------------------------------|
B |--0-0-0-0-0-0-0-0--2-2-2-2-2---|
F#|--0-0-0-0-0-0-0-0--2-2-2-2-2---|
B |--0-0-0-0-0-0-0-0--2-2-2-2-2---|


[Chorus]:


C#|-------------------------------------------------------------------------|
G#|-------------------------------------------------------------------------|
E |-------------------------------------------------------------------------|
B |--4-4-4-4-4-4-4-4--7-7-7-7-7-7-7-7--2-2-2-2-2-2-2-2-2-2-2-2-2-2--7-7-7---|
F#|--4-4-4-4-4-4-4-4--5-5-5-5-5-5-5-5--2-2-2-2-2-2-2-2-2-2-2-2-2-2--7-7-7---|
B |--4-4-4-4-4-4-4-4-------------------2-2-2-2-2-2-2-2-2-2-2-2-2-2--7-7-7---|


C#|-------------------------------------------------------------------------|
G#|-------------------------------------------------------------------------|
E |-------------------------------------------------------------------------|
B |--4-4-4-4-4-4-4-4--7-7-7-7-7-7-7-7--2-2-2-2-2-2-2-2-2-2-2-2-2-2--7-7-7---|
F#|--4-4-4-4-4-4-4-4--5-5-5-5-5-5-5-5--2-2-2-2-2-2-2-2-2-2-2-2-2-2--7-7-7---|
B |--4-4-4-4-4-4-4-4-------------------2-2-2-2-2-2-2-2-2-2-2-2-2-2--7-7-7---|


C#|-------------------------------------------------------------------------|
G#|-------------------------------------------------------------------------|
E |-------------------------------------------------------------------------|
B |--4-4-4-4-4-4-4-4--7-7-7-7-7-7-7-7--2-2-2-2-2-2-2-2-2-2-2-2-2-2--7-7-7---|
F#|--4-4-4-4-4-4-4-4--5-5-5-5-5-5-5-5--2-2-2-2-2-2-2-2-2-2-2-2-2-2--7-7-7---|
B |--4-4-4-4-4-4-4-4-------------------2-2-2-2-2-2-2-2-2-2-2-2-2-2--7-7-7---|


C#|------------------------------------------------------------------------|
G#|------------------------------------------------------------------------|
E |------------------------------------------------------------------------|
B |--4-4-4-4-4-4-4-4--7-7-7-7-7-7-7-7--2-2-2-2-2-2-2-2-2-2-2-2-2-2--7--7---|
F#|--4-4-4-4-4-4-4-4--5-5-5-5-5-5-5-5--2-2-2-2-2-2-2-2-2-2-2-2-2-2--7--7---|
B |--4-4-4-4-4-4-4-4-------------------2-2-2-2-2-2-2-2-2-2-2-2-2-2--7--7---|


[Bridge]:


C#|--------------------------------------------------------|
G#|--------------------------------------------------------|
E |--------------------------------------------------------|
B |--------------------------------------------------------|
F#|------------------------------------------------2-4-5---|
B |--4--4-4-4--4-4-5--4--4-4-4--4--4--4--4--2--2-2-2-4-5---|
        . .              . .

C#|--------------------------------------------------------|
G#|--------------------------------------------------------|
E |--------------------------------------------------------|
B |--------------------------------------------------------|
F#|------------------------------------------------2-4-5---|
B |--4--4-4-4--4-4-5--4--4-4-4--4--4--4--4--2--2-2-2-4-5---|
        . .              . .

C#|-------------------------------------------------------------------------|
G#|-------------------------------------------------------------------------|
E |-------------------------------------------------------------------------|
B |--------------------------------------------------------4---4--5--4--4---|
F#|------------------------------------------------2-4-5---4---4--5--4--4---|
B |--4--4-4-4--4-4-5--4--4-4-4--4--4--4--4--2--2-2-2-4-5---4---4--5--4--4---|
        . .              . .


C#|--------------------------------------------------------|
G#|--------------------------------------------------------|
E |--------------------------------------------------------|
B |--------------------------------------------------------|
F#|--4--4-4-4--4-4-5--4--4-4-4--4--4--4--4--2--2-2-2-4-5---|
B |--4--4-4-4--4-4-5--4--4-4-4--4--4--4--4--2--2-2-2-4-5---|
        . .              . .


C#|--------------------------------------------------------|
G#|--------------------------------------------------------|
E |--------------------------------------------------------|
B |--------------------------------------------------------|
F#|--4--4-4-4--4-4-5--4--4-4-4--4--4--4--4--2--2-2-2-4-5---|
B |--4--4-4-4--4-4-5--4--4-4-4--4--4--4--4--2--2-2-2-4-5---|
        . .              . .


C#|--------------------------------------------------------|
G#|--------------------------------------------------------|
E |--------------------------------------------------------|
B |--------------------------------------------------------|
F#|--4--4-4-4--4-4-5--4--4-4-4--4--4--4--4--2--2-2-2-4-5---|
B |--4--4-4-4--4-4-5--4--4-4-4--4--4--4--4--2--2-2-2-4-5---|
        . .              . .


C#|---------------------------------------------------|
G#|---------------------------------------------------|
E |---------------------------------------------------|
B |---------------------------------------------------|
F#|--4--4-4-4--4-4-5--4--4-4-4--4--4--4--4--2-2-2-2---|
B |--4--4-4-4--4-4-5--4--4-4-4--4--4--4--4--2-2-2-2---|
        . .              . .                . . .


C#|---------------------------------------------------------------------|
G#|---------------------------------------------------------------------|
E |---------------------------------------------------------------------|
B |--4---4---5--4--4--4---2---2--4-5---4---4---5--4--4---5--2--2--4-5---|
F#|--4---4---5--4--4--4---2---2--4-5---4---4---5--4--4---5--2--2--4-5---|
B |--4---4---5--4--4--4---2---2--4-5---4---4---5--4--4---5--2--2--4-5---|


C#|-------------------------------------------------------------|
G#|-------------------------------------------------------------|
E |-------------------------------------------------------------|
B |-------------------------------------------------------------|
F#|--4--4-4-4--4-4-5--4--4-4-4--4--4--4--4--4-2--2--2--2--4-5---|
B |--4--4-4-4--4-4-5--4--4-4-4--4--4--4--4--4-2--2--2--2--4-5---|
        . .              . .


C#|-------------------------------------------------------------|
G#|-------------------------------------------------------------|
E |-------------------------------------------------------------|
B |-------------------------------------------------------------|
F#|--4--4-4-4--4-4-5--4--4-4-4--4--4--4--4--4-2--2--2--2--4-5---|
B |--4--4-4-4--4-4-5--4--4-4-4--4--4--4--4--4-2--2--2--2--4-5---|
        . .              . .


[Pre-Chorus]:


C#|-------------------------------------|
G#|-------------------------------------|
E |-------------------------------------|
B |--0-0-0-0-0-0-0-0--2-2-2-2-2-2-2-2---|
F#|--0-0-0-0-0-0-0-0--2-2-2-2-2-2-2-2---|
B |--0-0-0-0-0-0-0-0--2-2-2-2-2-2-2-2---|


C#|-----------------------------------------------|
G#|-----------------------------------------------|
E |-----------------------------------------------|
B |--4-4-4-4-5--4-4-4-4-5--4-4-4-4-5--4-4-4-4-5---|
F#|--4-4-4-4-5--4-4-4-4-5--4-4-4-4-5--4-4-4-4-5---|
B |--4-4-4-4-5--4-4-4-4-5--4-4-4-4-5--4-4-4-4-5---|


C#|-------------------------------|
G#|-------------------------------|
E |-------------------------------|
B |--0-0-0-0-0-0-0-0--2-2-2-2-2---|
F#|--0-0-0-0-0-0-0-0--2-2-2-2-2---|
B |--0-0-0-0-0-0-0-0--2-2-2-2-2---|


[Chorus]:


C#|-------------------------------------------------------------------------|
G#|-------------------------------------------------------------------------|
E |-------------------------------------------------------------------------|
B |--4-4-4-4-4-4-4-4--7-7-7-7-7-7-7-7--2-2-2-2-2-2-2-2-2-2-2-2-2-2--7-7-7---|
F#|--4-4-4-4-4-4-4-4--5-5-5-5-5-5-5-5--2-2-2-2-2-2-2-2-2-2-2-2-2-2--7-7-7---|
B |--4-4-4-4-4-4-4-4-------------------2-2-2-2-2-2-2-2-2-2-2-2-2-2--7-7-7---|


C#|-------------------------------------------------------------------------|
G#|-------------------------------------------------------------------------|
E |-------------------------------------------------------------------------|
B |--4-4-4-4-4-4-4-4--7-7-7-7-7-7-7-7--2-2-2-2-2-2-2-2-2-2-2-2-2-2--7-7-7---|
F#|--4-4-4-4-4-4-4-4--5-5-5-5-5-5-5-5--2-2-2-2-2-2-2-2-2-2-2-2-2-2--7-7-7---|
B |--4-4-4-4-4-4-4-4-------------------2-2-2-2-2-2-2-2-2-2-2-2-2-2--7-7-7---|


C#|-------------------------------------------------------------------------|
G#|-------------------------------------------------------------------------|
E |-------------------------------------------------------------------------|
B |--4-4-4-4-4-4-4-4--7-7-7-7-7-7-7-7--2-2-2-2-2-2-2-2-2-2-2-2-2-2--7-7-7---|
F#|--4-4-4-4-4-4-4-4--5-5-5-5-5-5-5-5--2-2-2-2-2-2-2-2-2-2-2-2-2-2--7-7-7---|
B |--4-4-4-4-4-4-4-4-------------------2-2-2-2-2-2-2-2-2-2-2-2-2-2--7-7-7---|


C#|------------------------------------------------------------------------|
G#|------------------------------------------------------------------------|
E |------------------------------------------------------------------------|
B |--4-4-4-4-4-4-4-4--7-7-7-7-7-7-7-7--2-2-2-2-2-2-2-2-2-2-2-2-2-2--7--7---|
F#|--4-4-4-4-4-4-4-4--5-5-5-5-5-5-5-5--2-2-2-2-2-2-2-2-2-2-2-2-2-2--7--7---|
B |--4-4-4-4-4-4-4-4-------------------2-2-2-2-2-2-2-2-2-2-2-2-2-2--7--7---|


[Outro]:


C#|-------------------------------------------------|
G#|-------------------------------------------------|
E |-------------------------------------------------|
B |--4-4-4-4-5--4-4-4-4-5--4-4-4-4-5--4-4-4-4-5-4---|
F#|--4-4-4-4-5--4-4-4-4-5--4-4-4-4-5--4-4-4-4-5-4---|
B |--4-4-4-4-5--4-4-4-4-5--4-4-4-4-5--4-4-4-4-5-4---|







3. Naivety



[Intro]:


D|----------------------------------------------------|
A|----------------------------------------------------|
F|----------------------------------------------------|
C|--9~------5~------7~-------9~------5~------7~---\---|
G|--9~------5~------5~-------9~------5~------7~---\---|
C|--9~------5~---------------9~------5~------7~---\---|


[Verse]:


D|----------------------------------------------------------------|
A|----------------------------------------------------------------|
F|------------------------------------------------7---------------|
C|--9------------------------------5--------------7-7-7-7-7-7-7---|
G|--9------------------------------5--------------5-5-5-5-5-5-5---|
C|--9-9-9-9-9-9-9-9-9-9-9-9-9-9-9--5-5-5-5-5-5-5------------------|
      . . . . . . . . . . . . . .    . . . . . .    . . . . . .


D|----------------------------------------------------------------|
A|----------------------------------------------------------------|
F|------------------------------------------------7---------------|
C|--9------------------------------5--------------7-7-7-7-7-7-7---|
G|--9------------------------------5--------------5-5-5-5-5-5-5---|
C|--9-9-9-9-9-9-9-9-9-9-9-9-9-9-9--5-5-5-5-5-5-5------------------|
      . . . . . . . . . . . . . .    . . . . . .    . . . . . .


D|----------------------------------------------------------------------------------|
A|----------------------------------------------------------------------------------|
F|------------------------------------------------------------------7---------7-----|
C|------9---------9---------9---------9---------5---------5-----7-7-7-7---7-7-7-7---|
G|--9-9-9-9---9-9-9-9---9-9-9-9---9-9-9-9---5-5-5-5---5-5-5-5---5-5-5-5---5-5-5-5---|
C|--9-9-9-9---9-9-9-9---9-9-9-9---9-9-9-9---5-5-5-5---5-5-5-5-----------------------|
    . .   .   . .   .   . .   .   . .   .   . .   .   . .   .   . .   .   . .   .


D|----------------------------------------------------------------------------------|
A|----------------------------------------------------------------------------------|
F|----------------------------------------------------------------------------------|
C|------9---------9---------9---------9---------5---------5---------7---------7-----|
G|--9-9-9-9---9-9-9-9---9-9-9-9---9-9-9-9---5-5-5-5---5-5-5-5---7-7-7-7---7-7-7-7---|
C|--9-9-9-9---9-9-9-9---9-9-9-9---9-9-9-9---5-5-5-5---5-5-5-5---7-7-7-7---7-7-7-7---|
    . .   .   . .   .   . .   .   . .   .   . .   .   . .   .   . .   .   . .   .


[Pre-Chorus]:


D|---------------------------------------------------------------|
A|---------------------------------------------------------------|
F|---------------------------------------------------------------|
C|--5--------------------------------7---------------------------|
G|--5---5-5-5-5-5-5-5-5-5-5-5-5-5-5--7--7-7-7-7-7-7-7-7-7-7------|
C|--5---5-5-5-5-5-5-5-5-5-5-5-5-5-5--7--7-7-7-7-7-7-7-7-7-7--\---|
        . . . . . . . . . . . . . .     . . . . . . . . . .


[Chorus]:


D|---------------------------------------------------------------------|
A|---------------------------------------------------------------------|
F|--5-5-5-5-5-5-5-5-5-5-5-5-5-5-5-5------------------------------------|
C|--5-5-5-5-5-5-5-5-5-5-5-5-5-5-5-5--4-4-4-4-4-4-4-4-4-4-4-4-4-4-4-4---|
G|--3-3-3-3-3-3-3-3-3-3-3-3-3-3-3-3--4-4-4-4-4-4-4-4-4-4-4-4-4-4-4-4---|
C|-----------------------------------4-4-4-4-4-4-4-4-4-4-4-4-4-4-4-4---|


D|---------------------------------------------------------------------|
A|---------------------------------------------------------------------|
F|---------------------------------------------------------------------|
C|--9-9-9-9-9-9-9-9-9-9-9-9-9-9-9-9--5-5-5-5-5-5-5-5-5-5-5-5-5-5-5-5---|
G|--9-9-9-9-9-9-9-9-9-9-9-9-9-9-9-9--5-5-5-5-5-5-5-5-5-5-5-5-5-5-5-5---|
C|--9-9-9-9-9-9-9-9-9-9-9-9-9-9-9-9--5-5-5-5-5-5-5-5-5-5-5-5-5-5-5-5---|


D|---------------------------------------------------------------------|
A|---------------------------------------------------------------------|
F|--5-5-5-5-5-5-5-5-5-5-5-5-5-5-5-5------------------------------------|
C|--5-5-5-5-5-5-5-5-5-5-5-5-5-5-5-5--4-4-4-4-4-4-4-4-4-4-4-4-4-4-4-4---|
G|--3-3-3-3-3-3-3-3-3-3-3-3-3-3-3-3--4-4-4-4-4-4-4-4-4-4-4-4-4-4-4-4---|
C|-----------------------------------4-4-4-4-4-4-4-4-4-4-4-4-4-4-4-4---|


D|---------------------------------------------------------------------|
A|---------------------------------------------------------------------|
F|---------------------------------------------------------------------|
C|--9-9-9-9-9-9-9-9-9-9-9-9-9-9-9-9--5-5-5-5-5-5-5-5-5-5-5-5-5-5-5-5---|
G|--9-9-9-9-9-9-9-9-9-9-9-9-9-9-9-9--5-5-5-5-5-5-5-5-5-5-5-5-5-5-5-5---|
C|--9-9-9-9-9-9-9-9-9-9-9-9-9-9-9-9--5-5-5-5-5-5-5-5-5-5-5-5-5-5-5-5---|


[Verse]:


D|------------------------------------------------|
A|------------------------------------------------|
F|------------------------------------------------|
C|--9\------5~------7~-------9~------5~------7~---|
G|--9\------5~------5~-------9~------5~------7~---|
C|--9\------5~---------------9~------5~------7~---|


D|---------------------------------------------------------------------------|
A|---------------------------------------------------------------------------|
F|------------------------------------------------------------------7--7-7---|
C|------9---------9---------9---------9---------5---------5-----7-7-7--7-7---|
G|--9-9-9-9---9-9-9-9---9-9-9-9---9-9-9-9---5-5-5-5---5-5-5-5---5-5-5--5-5---|
C|--9-9-9-9---9-9-9-9---9-9-9-9---9-9-9-9---5-5-5-5---5-5-5-5----------------|
    . .   .   . .   .   . .   .   . .   .   . .   .   . .   .   . . 


D|----------------------------------------------------------------------------------|
A|----------------------------------------------------------------------------------|
F|----------------------------------------------------------------------------------|
C|------9---------9---------9---------9---------5---------5---------7---------7-----|
G|--9-9-9-9---9-9-9-9---9-9-9-9---9-9-9-9---5-5-5-5---5-5-5-5---7-7-7-7---7-7-7-7---|
C|--9-9-9-9---9-9-9-9---9-9-9-9---9-9-9-9---5-5-5-5---5-5-5-5---7-7-7-7---7-7-7-7---|
    . .   .   . .   .   . .   .   . .   .   . .   .   . .   .   . .   .   . .   .


[Pre-Chorus]:


D|------------------------------------------------------------|
A|------------------------------------------------------------|
F|------------------------------------------------------------|
C|--5--------------------------------7------7-------7--7------|
G|--5---5-5-5-5-5-5-5-5-5-5-5-5-5-5--7--7-7-7--7-7--7--7------|
C|--5---5-5-5-5-5-5-5-5-5-5-5-5-5-5--7--7-7-7--7-7--7--7--\---|
        . . . . . . . . . . . . . .     . .    . .


[Chorus]:


D|---------------------------------------------------------------------|
A|---------------------------------------------------------------------|
F|--5-5-5-5-5-5-5-5-5-5-5-5-5-5-5-5------------------------------------|
C|--5-5-5-5-5-5-5-5-5-5-5-5-5-5-5-5--4-4-4-4-4-4-4-4-4-4-4-4-4-4-4-4---|
G|--3-3-3-3-3-3-3-3-3-3-3-3-3-3-3-3--4-4-4-4-4-4-4-4-4-4-4-4-4-4-4-4---|
C|-----------------------------------4-4-4-4-4-4-4-4-4-4-4-4-4-4-4-4---|


D|---------------------------------------------------------------------|
A|---------------------------------------------------------------------|
F|---------------------------------------------------------------------|
C|--9-9-9-9-9-9-9-9-9-9-9-9-9-9-9-9--5-5-5-5-5-5-5-5-5-5-5-5-5-5-5-5---|
G|--9-9-9-9-9-9-9-9-9-9-9-9-9-9-9-9--5-5-5-5-5-5-5-5-5-5-5-5-5-5-5-5---|
C|--9-9-9-9-9-9-9-9-9-9-9-9-9-9-9-9--5-5-5-5-5-5-5-5-5-5-5-5-5-5-5-5---|


D|---------------------------------------------------------------------|
A|---------------------------------------------------------------------|
F|--5-5-5-5-5-5-5-5-5-5-5-5-5-5-5-5------------------------------------|
C|--5-5-5-5-5-5-5-5-5-5-5-5-5-5-5-5--4-4-4-4-4-4-4-4-4-4-4-4-4-4-4-4---|
G|--3-3-3-3-3-3-3-3-3-3-3-3-3-3-3-3--4-4-4-4-4-4-4-4-4-4-4-4-4-4-4-4---|
C|-----------------------------------4-4-4-4-4-4-4-4-4-4-4-4-4-4-4-4---|


D|---------------------------------------------------------------------|
A|---------------------------------------------------------------------|
F|---------------------------------------------------------------------|
C|--9-9-9-9-9-9-9-9-9-9-9-9-9-9-9-9--5-5-5-5-5-5-5-5-5-5-5-5-5-5-5-5---|
G|--9-9-9-9-9-9-9-9-9-9-9-9-9-9-9-9--5-5-5-5-5-5-5-5-5-5-5-5-5-5-5-5---|
C|--9-9-9-9-9-9-9-9-9-9-9-9-9-9-9-9--5-5-5-5-5-5-5-5-5-5-5-5-5-5-5-5---|


[Bridge]:


D|------------------------------------------|
A|------------------------------------------|
F|--7---7---7-----7---7---7-----------------|
C|--7---7---7-----7---7---7-----9---9---9---|
G|--5---5---5-----5---5---5-----9---9---9---|
C|------------------------------9---9---9---|


D|-------------------------------|
A|--5-7-7--5-7-7--5-7-7--5-7-7---|
F|-------------------------------|
C|-------------------------------|
G|-------------------------------|
C|-------------------------------|


D|------------------------------------------------------------------------------|
A|--5-7-7--5-7-7--5-7-7--5-7-7--8-8-5-5---5-7-7--5-7-7--5-7-7--5-7-7--8-8-5-5---|
F|------------------------------------------------------------------------------|
C|------------------------------------------------------------------------------|
G|------------------------------------------------------------------------------|
C|------------------------------------------------------------------------------|


D|------------------------------------------------------------------------------|
A|--5-7-7--5-7-7--5-7-7--5-7-7--8-8-5-5---5-7-7--5-7-7--5-7-7--5-7-7--8-8-5-5---|
F|------------------------------------------------------------------------------|
C|------------------------------------------------------------------------------|
G|------------------------------------------------------------------------------|
C|------------------------------------------------------------------------------|


D|------------------------------------------------------------------------------|
A|--5-7-7--5-7-7--5-7-7--5-7-7--8-8-5-5---5-7-7--5-7-7--5-7-7--5-7-7--8-8-5-5---|
F|------------------------------------------------------------------------------|
C|------------------------------------------------------------------------------|
G|------------------------------------------------------------------------------|
C|------------------------------------------------------------------------------|


D|------------------------------------------------------------------------------|
A|--5-7-7--5-7-7--5-7-7--5-7-7--8-8-5-5---5-7-7--5-7-7--5-7-7--5-7-7--8-8-5-5---|
F|------------------------------------------------------------------------------|
C|------------------------------------------------------------------------------|
G|------------------------------------------------------------------------------|
C|------------------------------------------------------------------------------|


[Pre-Chorus]:


D|------------------------------------------------------------|
A|------------------------------------------------------------|
F|------------------------------------------------------------|
C|--5--------------------------------7------------------------|
G|--5---5-5-5-5-5-5-5-5-5-5-5-5-5-5--7--7-7-7-7-7-7-7-7-7-7---|
C|--5---5-5-5-5-5-5-5-5-5-5-5-5-5-5--7--7-7-7-7-7-7-7-7-7-7---|
        . . . . . . . . . . . . . .     . . . . . . . . . .


D|---------------------------------------------------------------|
A|---------------------------------------------------------------|
F|---------------------------------------------------------------|
C|--5--------------------------------7---------------------------|
G|--5---5-5-5-5-5-5-5-5-5-5-5-5-5-5--7--7-7-7-7-7-7-7-7-7-7------|
C|--5---5-5-5-5-5-5-5-5-5-5-5-5-5-5--7--7-7-7-7-7-7-7-7-7-7--\---|
        . . . . . . . . . . . . . .     . . . . . . . . . .


[Chorus]:


D|---------------------------------------------------------------------|
A|---------------------------------------------------------------------|
F|--5-5-5-5-5-5-5-5-5-5-5-5-5-5-5-5------------------------------------|
C|--5-5-5-5-5-5-5-5-5-5-5-5-5-5-5-5--4-4-4-4-4-4-4-4-4-4-4-4-4-4-4-4---|
G|--3-3-3-3-3-3-3-3-3-3-3-3-3-3-3-3--4-4-4-4-4-4-4-4-4-4-4-4-4-4-4-4---|
C|-----------------------------------4-4-4-4-4-4-4-4-4-4-4-4-4-4-4-4---|


D|---------------------------------------------------------------------|
A|---------------------------------------------------------------------|
F|---------------------------------------------------------------------|
C|--9-9-9-9-9-9-9-9-9-9-9-9-9-9-9-9--5-5-5-5-5-5-5-5-5-5-5-5-5-5-5-5---|
G|--9-9-9-9-9-9-9-9-9-9-9-9-9-9-9-9--5-5-5-5-5-5-5-5-5-5-5-5-5-5-5-5---|
C|--9-9-9-9-9-9-9-9-9-9-9-9-9-9-9-9--5-5-5-5-5-5-5-5-5-5-5-5-5-5-5-5---|


D|---------------------------------------------------------------------|
A|---------------------------------------------------------------------|
F|--5-5-5-5-5-5-5-5-5-5-5-5-5-5-5-5------------------------------------|
C|--5-5-5-5-5-5-5-5-5-5-5-5-5-5-5-5--4-4-4-4-4-4-4-4-4-4-4-4-4-4-4-4---|
G|--3-3-3-3-3-3-3-3-3-3-3-3-3-3-3-3--4-4-4-4-4-4-4-4-4-4-4-4-4-4-4-4---|
C|-----------------------------------4-4-4-4-4-4-4-4-4-4-4-4-4-4-4-4---|


D|---------------------------------------------------------------------|
A|---------------------------------------------------------------------|
F|---------------------------------------------------------------------|
C|--9-9-9-9-9-9-9-9-9-9-9-9-9-9-9-9--5-5-5-5-5-5-5-5-5-5-5-5-5-5-5-5---|
G|--9-9-9-9-9-9-9-9-9-9-9-9-9-9-9-9--5-5-5-5-5-5-5-5-5-5-5-5-5-5-5-5---|
C|--9-9-9-9-9-9-9-9-9-9-9-9-9-9-9-9--5-5-5-5-5-5-5-5-5-5-5-5-5-5-5-5---|


[Outro]:


D|--------------------------------------------------------|
A|--------------------------------------------------------|
F|------------------7~------------------------------------|
C|--9~------5~------7~-------9~------5~------7~------9~---|
G|--9~------5~------5~-------9~------5~------7~------9~---|
C|--9~------5~---------------9~------5~------7~------9~---|







4. Exposed



[Intro]:


C |----------------------------------------------------|
G |----------------------------------------------------|
D#|----------------------------------------------------|
A#|----------------------------------------------------|
F |--5------------5-------3---------5----------0-0-0---|
A#|----1-0-1-0------1-0-1---1-0-1-----1-0-1-0--1-1-1---|
                                               . .


[Verse]:


C |-------------------------------------------------------------|
G |-------------------------------------------------------------|
D#|-------------------------------------------------------------|
A#|-------------------------------------------------------------|
F |--5------------5-------3---------5----------0---0---0-0--0---|
A#|----1-0-1-0------1-0-1---1-0-1-----1-0-1-0--1---1---1-1--1---|
                                               .   .   . .  .


C |---------------------------------------------------------------|
G |---------------------------------------------------------------|
D#|---------------------------------------------------------------|
A#|---------------------------------------------------------------|
F |--5------------5-------3---------5-----------------------------|
A#|----1-0-1-0------1-0-1---1-0-1-----1-0-1-0--4-4-4-4--1-1-1-1---|



C |-------------------------------------------------------------|
G |-------------------------------------------------------------|
D#|-------------------------------------------------------------|
A#|-------------------------------------------------------------|
F |--5------------5-------3---------5----------0---0---0-0--0---|
A#|----1-0-1-0------1-0-1---1-0-1-----1-0-1-0--1---1---1-1--1---|
                                               .   .   . .  .


C |---------------------------------------------------------------|
G |---------------------------------------------------------------|
D#|---------------------------------------------------------------|
A#|---------------------------------------------------------------|
F |--5------------5-------3---------5-----------------------------|
A#|----1-0-1-0------1-0-1---1-0-1-----1-0-1-0--4-4-4-4--1-1-1-1---|



[Verse 2]:



C |-----------------------------------------------------------------------|
G |-----------------------------------------------------------------------|
D#|-----------------------------------------------------------------------|
A#|--------------------4h5p4----------------------------------------------|
F |--5-----6---3---5-----------6---6/9--5-----6---3---5-------0-1-4---0---|
A#|----0-0---0---0---0-------0---0--------0-0---0---0---0-1-4-------4-----|
       . .   .   .   .       .   .        . .   .   .   

C |-------------------------------------------------------------------|
G |-------------------------------------------------------------------|
D#|-------------------------------------------------------------------|
A#|--------------------4h5p4------------------------------------------|
F |--5-----6---3---5-----------6---6/9--5-----6---3---5--3-3-3-3--2---|
A#|----0-0---0---0---0-------0---0--------0-0---0---0----3-3-3-3--2---|
       . .   .   .   .       .   .        . .   .   .   


C |-----------------------------------------------------------------------|
G |-----------------------------------------------------------------------|
D#|-----------------------------------------------------------------------|
A#|--------------------4h5p4----------------------------------------------|
F |--5-----6---3---5-----------6---6/9--5-----6---3---5-------0-1-4---0---|
A#|----0-0---0---0---0-------0---0--------0-0---0---0---0-1-4-------4-----|
       . .   .   .   .       .   .        . .   .   .   

C |-----------------------------------------------------------------------|
G |-----------------------------------------------------------------------|
D#|-----------------------------------------------------------------------|
A#|--------------------4h5p4----------------------------------------------|
F |--5-----6---3---5-----------6---6/9--5-----6---3---5-------0-1-4---0---|
A#|----0-0---0---0---0-------0---0--------0-0---0---0---0-1-4-------4-----|
       . .   .   .   .       .   .        . .   .   .   


C |-----------------------------------------------------------------------|
G |-----------------------------------------------------------------------|
D#|-----------------------------------------------------------------------|
A#|--------------------4h5p4----------------------------------------------|
F |--5-----6---3---5-----------6---6/9--5-----6---3---5-------0-1-4---0---|
A#|----0-0---0---0---0-------0---0--------0-0---0---0---0-1-4-------4-----|
       . .   .   .   .       .   .        . .   .   .   


C |-----------------------------------------------------------------------|
G |-----------------------------------------------------------------------|
D#|-----------------------------------------------------------------------|
A#|--------------------4h5p4----------------------------------------------|
F |--5-----6---3---5-----------6---6/9--5-----6---3---5-------0-1-4---0---|
A#|----0-0---0---0---0-------0---0--------0-0---0---0---0-1-4-------4-----|
       . .   .   .   .       .   .        . .   .   .   


[Pre-Chorus]:


C |-----------------------------------------------------------------------------------------------------|
G |-----------------------------------------------------------------------------------------------------|
D#|---------14-------14-------14-------14----12----14-------14-------14-------17-------17----15----14---|
A#|---12-12----12-12----12-12----12-12----12----12----12-12----12-12----12-12----12-12----12----12------|
F |-----------------------------------------------------------------------------------------------------|
A#|-----------------------------------------------------------------------------------------------------|
      .  .     .  .     .  .     .  .     .     .     .  .     .  .     .  .     .  .     .     .


[Chorus]:


C |---------------------------------------------------------------------|
G |---------------------------------------------------------------------|
D#|---------------------------------------------------------------------|
A#|--0-0-0-0-0-0-0-0-0-0-0-0-0-0-0-0--3-3-3-3-3-3-3-3-3-3-3-3-3-3-3-3---|
F |--0-0-0-0-0-0-0-0-0-0-0-0-0-0-0-0--3-3-3-3-3-3-3-3-3-3-3-3-3-3-3-3---|
A#|--0-0-0-0-0-0-0-0-0-0-0-0-0-0-0-0--3-3-3-3-3-3-3-3-3-3-3-3-3-3-3-3---|


C |---------------------------------------------------------------------|
G |---------------------------------------------------------------------|
D#|---------------------------------------------------------------------|
A#|--8-8-8-8-8-8-8-8-8-8-8-8-8-8-8-8--5-5-5-5-5-5-5-5-5-5-5-5-5-5-5-5---|
F |--8-8-8-8-8-8-8-8-8-8-8-8-8-8-8-8--5-5-5-5-5-5-5-5-5-5-5-5-5-5-5-5---|
A#|--8-8-8-8-8-8-8-8-8-8-8-8-8-8-8-8--5-5-5-5-5-5-5-5-5-5-5-5-5-5-5-5---|


C |---------------------------------------------------------------------|
G |---------------------------------------------------------------------|
D#|---------------------------------------------------------------------|
A#|--0-0-0-0-0-0-0-0-0-0-0-0-0-0-0-0--3-3-3-3-3-3-3-3-3-3-3-3-3-3-3-3---|
F |--0-0-0-0-0-0-0-0-0-0-0-0-0-0-0-0--3-3-3-3-3-3-3-3-3-3-3-3-3-3-3-3---|
A#|--0-0-0-0-0-0-0-0-0-0-0-0-0-0-0-0--3-3-3-3-3-3-3-3-3-3-3-3-3-3-3-3---|


C |-------------------------------------------------------------------------------------|
G |-------------------------------------------------------------------------------------|
D#|-------------------------------------------------------------------------------------|
A#|--8-8-8-8-8-8-8-8-8-8-8-8-8-8-8-8--10-10-10-10-10-10-10-10-10-10-10-10-10-10-10-10---|
F |--8-8-8-8-8-8-8-8-8-8-8-8-8-8-8-8--10-10-10-10-10-10-10-10-10-10-10-10-10-10-10-10---|
A#|--8-8-8-8-8-8-8-8-8-8-8-8-8-8-8-8--10-10-10-10-10-10-10-10-10-10-10-10-10-10-10-10---|


[Verse]:


C |-------------------------------------------------------------|
G |-------------------------------------------------------------|
D#|-------------------------------------------------------------|
A#|-------------------------------------------------------------|
F |--5------------5-------3---------5----------0---0---0-0--0---|
A#|----1-0-1-0------1-0-1---1-0-1-----1-0-1-0--1---1---1-1--1---|
                                               .   .   . .  .


C |---------------------------------------------------------------|
G |---------------------------------------------------------------|
D#|---------------------------------------------------------------|
A#|---------------------------------------------------------------|
F |--5------------5-------3---------5-----------------------------|
A#|----1-0-1-0------1-0-1---1-0-1-----1-0-1-0--4-4-4-4--1-1-1-1---|


C |-------------------------------------------------------------|
G |-------------------------------------------------------------|
D#|-------------------------------------------------------------|
A#|-------------------------------------------------------------|
F |--5------------5-------3---------5----------0---0---0-0--0---|
A#|----1-0-1-0------1-0-1---1-0-1-----1-0-1-0--1---1---1-1--1---|
                                               .   .   . .  .


C |-----------------------------------------------------------------|
G |-----------------------------------------------------------------|
D#|-----------------------------------------------------------------|
A#|-------------------------------------------------------------0---|
F |--5------------5-------3---------5---------------------------0---|
A#|----1-0-1-0------1-0-1---1-0-1-----1-0-1-0--4-4-4-4--1-1-1-1-0---|
                                                                .


[Verse 3]:


C |------------------------------------------------------------------------------|
G |------------------------------------------------------------------------------|
D#|------------------------------------------------------------------------------|
A#|---------------------------------------------3*-------------------------------|
F |--0-0-0--0--0--------------0---0---0---0--0--------0-0-0--0--0----------------|
A#|--0-0-0--0--0--1-1-0-1-0---1---1---1---1--0--------0-0-0--0--0--1-1-0-1-0-----|
     . .  . .  .  . .         .   .   .   .  .        . . .  .  .  . .


C |---------------------|
G |---------------------|
D#|---------------------|
A#|------------------0--|
F |--5-------3-------0--|
A#|----1-0-1---1-0-1-0--|
                     .


C |-------------------------------------------------------------------------------------|
G |-------------------------------------------------------------------------------------|
D#|-------------------------------------------------------------------------------------|
A#|-------------------------------------------------------------------------------------|
F |--0-0-0--0--0--------------0---0---0---0--0-----------------0-0-0--0--0--------------|
A#|--0-0-0--0--0--1-1-0-1-0---1---1---1---1--0---3*-3*-3*-3*---0-0-0--0--0--1-1-0-1-0---|
     . .  . .  .  . .         .   .   .   .  .                 . . .  .  .  . .


C |---------------------|
G |---------------------|
D#|---------------------|
A#|------------------0--|
F |--5-------3-------0--|
A#|----1-0-1---1-0-1-0--|
                     .


[Pre-Chorus]:


C |-----------------------------------------------------------------------------------------------------|
G |-----------------------------------------------------------------------------------------------------|
D#|---------14-------14-------14-------14----12----14-------14-------14-------17-------17----15----14---|
A#|---12-12----12-12----12-12----12-12----12----12----12-12----12-12----12-12----12-12----12----12------|
F |-----------------------------------------------------------------------------------------------------|
A#|-----------------------------------------------------------------------------------------------------|
      .  .     .  .     .  .     .  .     .     .     .  .     .  .     .  .     .  .     .     .


[Chorus]:


C |---------------------------------------------------------------------|
G |---------------------------------------------------------------------|
D#|---------------------------------------------------------------------|
A#|--0-0-0-0-0-0-0-0-0-0-0-0-0-0-0-0--3-3-3-3-3-3-3-3-3-3-3-3-3-3-3-3---|
F |--0-0-0-0-0-0-0-0-0-0-0-0-0-0-0-0--3-3-3-3-3-3-3-3-3-3-3-3-3-3-3-3---|
A#|--0-0-0-0-0-0-0-0-0-0-0-0-0-0-0-0--3-3-3-3-3-3-3-3-3-3-3-3-3-3-3-3---|


C |---------------------------------------------------------------------|
G |---------------------------------------------------------------------|
D#|---------------------------------------------------------------------|
A#|--8-8-8-8-8-8-8-8-8-8-8-8-8-8-8-8--5-5-5-5-5-5-5-5-5-5-5-5-5-5-5-5---|
F |--8-8-8-8-8-8-8-8-8-8-8-8-8-8-8-8--5-5-5-5-5-5-5-5-5-5-5-5-5-5-5-5---|
A#|--8-8-8-8-8-8-8-8-8-8-8-8-8-8-8-8--5-5-5-5-5-5-5-5-5-5-5-5-5-5-5-5---|


C |---------------------------------------------------------------------|
G |---------------------------------------------------------------------|
D#|---------------------------------------------------------------------|
A#|--0-0-0-0-0-0-0-0-0-0-0-0-0-0-0-0--3-3-3-3-3-3-3-3-3-3-3-3-3-3-3-3---|
F |--0-0-0-0-0-0-0-0-0-0-0-0-0-0-0-0--3-3-3-3-3-3-3-3-3-3-3-3-3-3-3-3---|
A#|--0-0-0-0-0-0-0-0-0-0-0-0-0-0-0-0--3-3-3-3-3-3-3-3-3-3-3-3-3-3-3-3---|


C |-------------------------------------------------------------------------------------|
G |-------------------------------------------------------------------------------------|
D#|-------------------------------------------------------------------------------------|
A#|--8-8-8-8-8-8-8-8-8-8-8-8-8-8-8-8--10-10-10-10-10-10-10-10-10-10-10-10-10-10-10-10---|
F |--8-8-8-8-8-8-8-8-8-8-8-8-8-8-8-8--10-10-10-10-10-10-10-10-10-10-10-10-10-10-10-10---|
A#|--8-8-8-8-8-8-8-8-8-8-8-8-8-8-8-8--10-10-10-10-10-10-10-10-10-10-10-10-10-10-10-10---|


C |---------------------------------------------------------------------|
G |---------------------------------------------------------------------|
D#|---------------------------------------------------------------------|
A#|--0-0-0-0-0-0-0-0-0-0-0-0-0-0-0-0--3-3-3-3-3-3-3-3-3-3-3-3-3-3-3-3---|
F |--0-0-0-0-0-0-0-0-0-0-0-0-0-0-0-0--3-3-3-3-3-3-3-3-3-3-3-3-3-3-3-3---|
A#|--0-0-0-0-0-0-0-0-0-0-0-0-0-0-0-0--3-3-3-3-3-3-3-3-3-3-3-3-3-3-3-3---|


C |---------------------------------------------------------------------|
G |---------------------------------------------------------------------|
D#|---------------------------------------------------------------------|
A#|--8-8-8-8-8-8-8-8-8-8-8-8-8-8-8-8--5-5-5-5-5-5-5-5-5-5-5-5-5-5-5-5---|
F |--8-8-8-8-8-8-8-8-8-8-8-8-8-8-8-8--5-5-5-5-5-5-5-5-5-5-5-5-5-5-5-5---|
A#|--8-8-8-8-8-8-8-8-8-8-8-8-8-8-8-8--5-5-5-5-5-5-5-5-5-5-5-5-5-5-5-5---|


C |---------------------------------------------------------------------|
G |---------------------------------------------------------------------|
D#|---------------------------------------------------------------------|
A#|--0-0-0-0-0-0-0-0-0-0-0-0-0-0-0-0--3-3-3-3-3-3-3-3-3-3-3-3-3-3-3-3---|
F |--0-0-0-0-0-0-0-0-0-0-0-0-0-0-0-0--3-3-3-3-3-3-3-3-3-3-3-3-3-3-3-3---|
A#|--0-0-0-0-0-0-0-0-0-0-0-0-0-0-0-0--3-3-3-3-3-3-3-3-3-3-3-3-3-3-3-3---|


C |-----------------------------------------------------------------------------------------|
G |-----------------------------------------------------------------------------------------|
D#|-----------------------------------------------------------------------------------------|
A#|--8-8-8-8-8-8-8-8-8-8-8-8-8-8-8-8--10-10-10-10-10-10-10-10-10-10-10-10-10-10-10-10--0~---|
F |--8-8-8-8-8-8-8-8-8-8-8-8-8-8-8-8--10-10-10-10-10-10-10-10-10-10-10-10-10-10-10-10--0~---|
A#|--8-8-8-8-8-8-8-8-8-8-8-8-8-8-8-8--10-10-10-10-10-10-10-10-10-10-10-10-10-10-10-10--0~---|


[Breakdown/Outro]:


C |---------------------------------------------------------------------------------|
G |---------8--------------------8--------------------8--------------------8--------|
D#|------8-------------------8---------------------8-------------------8------------|
A#|--12--------12~------12----------12~--------12--------12~------12----------12~---|
F |---------------------------------------------------------------------------------|
A#|---------------------------------------------------------------------------------|


C |----------------------------------|
G |---------8--------------------8---|
D#|------8--------------------8------|
A#|--12--------12~--------12---------|
F |----------------------------------|
A#|----------------------------------|


C |------------------------------------------------------------------------------------------------|
G |------------------------------------------------------------------------------------------------|
D#|------------------------------------------------------------------------------------------------|
A#|------------------------------------------------------------------------------------------------|
F |--0-0-0--0--0-0-0--0--0-0-0--0-0-0--0-0-0--0-0-0--0-0-0-0--0-0-0--0--0-0-0--0--0-0-0----0-0-0---|
A#|--0-0-0--0--0-0-0--0--0-0-0--0-0-0--0-0-0--0-0-0--0-0-0-0--0-0-0--0--0-0-0--0--0-0-0----0-0-0---|
     . . .  .  . . .  .  . . .  . . .  . . .  . . .  . . . .  . . .  .  . . .  .  . . .    . . .


C |--------------------------------------------------------------------------------------------------|
G |--------------------------------------------------------------------------------------------------|
D#|--------------------------------------------------------------------------------------------------|
A#|--------------------------------------------------------------------------------------------------|
F |--0-0-0-0---0-0-0--0--0-0-0--0--0-0-0--0-0-0--0-0-0--0-0-0--0-0-0--0-0-0--0--0-0-0--0--0-0-0--0---|
A#|--0-0-0-0---0-0-0--0--0-0-0--0--0-0-0--0-0-0--0-0-0--0-0-0--0-0-0--0-0-0--0--0-0-0--0--0-0-0--0---|
     . . . .   . . .  .  . . .  .  . . .  . . .  . . .  . . .  . . .  . . .  .  . . .  .  . . .  .


C |-----------------------------------------------------------------------|
G |-----------------------------------------------------------------------|
D#|-----------------------------------------------------------------------|
A#|-----------------------------------------------------------------------|
F |--0--0--0-0---0--0--0-0---0--0-0---0--0-0---0--0-0---0--0-0---0--0-0---|
A#|--0--0--0-0---0--0--0-0---0--0-0---0--0-0---0--0-0---0--0-0---0--0-0---|
     .  .  . .   .  .  . .   .  . .   .  . .   .  . .   .  . .   .  . .


C |------------------------------------------------------------------|
G |------------------------------------------------------------------|
D#|------------------------------------------------------------------|
A#|------------------------------------------------------------------|
F |--0--0--0-0---0--0--0-0---0--0-0---0--0-0---0--0-0---0--0-0--2*---|
A#|--0--0--0-0---0--0--0-0---0--0-0---0--0-0---0--0-0---0--0-0-------|
     .  .  . .   .  .  . .   .  . .   .  . .   .  . .   .  . .


C |----------------------------------------------------------|
G |----------------------------------------------------------|
D#|----------------------------------------------------------|
A#|----------------------------------------------------------|
F |--0-0-0--0--0-0-0--0--0-0-0--0-0-0--0-0-0--0-0-0--0-0-0---|
A#|--0-0-0--0--0-0-0--0--0-0-0--0-0-0--0-0-0--0-0-0--0-0-0---|
     . . .  .  . . .  .  . . .  . . .  . . .  . . .  . . .


C |----------------------------------------------------------|
G |----------------------------------------------------------|
D#|----------------------------------------------------------|
A#|----------------------------------------------------------|
F |--0-0-0--0--0-0-0--0--0-0-0--0-0-0--0-0-0--0-0-0--0-0-0---|
A#|--0-0-0--0--0-0-0--0--0-0-0--0-0-0--0-0-0--0-0-0--0-0-0---|
     . . .  .  . . .  .  . . .  . . .  . . .  . . .  . . .







5. Bullfight



[Intro]:


D|---------------------------------------------------------|
A|--6--6--6--6--6--6--6--6--6--6--6--6--6--6--6--6--6--6---|
F|--7--7--7--7--7--7--7--7--7--7--7--7--7--7--7--7--7--7---|
C|--7--7--7--7--7--7--7--7--7--7--7--7--7--7--7--7--7--7---|
G|---------------------------------------------------------|
C|---------------------------------------------------------|


D|---------------------------------------------------------------------|
A|--6--6--6--6--6--6--6--6--6--6--6--6--6--6--6--6--6--6--5--5--5--5---|
F|--7--7--7--7--7--7--7--7--7--7--7--7--7--7--7--7--7--7--6--6--6--6---|
C|--7--7--7--7--7--7--7--7--7--7--7--7--7--7--7--7--7--7--7--7--7--7---|
G|---------------------------------------------------------------------|
C|---------------------------------------------------------------------|


[Verse]:


D|---------------------------------------------------------|
A|--6--6--6--6--6--6--6--6--6--6--6--6--6--6--6--6--6--6---|
F|--7--7--7--7--7--7--7--7--7--7--7--7--7--7--7--7--7--7---|
C|--7--7--7--7--7--7--7--7--7--7--7--7--7--7--7--7--7--7---|
G|---------------------------------------------------------|
C|---------------------------------------------------------|


D|------------------------------------|
A|--6--6--6--6--6--6--6--6--6--6------|
F|--7--7--7--7--7--7--7--7--7--7------|
C|--7--7--7--7--7--7--7--7--7--7------|
G|------------------------------------|
C|--------------------------------\---|


[Pre-Chorus]:


D|----------------------------------------------------------------------|
A|----------------------------------------------------------------------|
F|-----------------------------------7-7-7-7-7-7-7-7--------------------|
C|--8-8-8-8-8-8-8-8-8-8-8-8-8-8-8-8--7-7-7-7-7-7-7-7--7-7-7-7-7-7-7-7---|
G|--8-8-8-8-8-8-8-8-8-8-8-8-8-8-8-8--5-5-5-5-5-5-5-5--7-7-7-7-7-7-7-7---|
C|--8-8-8-8-8-8-8-8-8-8-8-8-8-8-8-8-------------------7-7-7-7-7-7-7-7---|


D|----------------------------------------------------------------------|
A|----------------------------------------------------------------------|
F|-----------------------------------7-7-7-7-7-7-7-7--------------------|
C|--8-8-8-8-8-8-8-8-8-8-8-8-8-8-8-8--7-7-7-7-7-7-7-7--7-7-7-7-7-7-7-7---|
G|--8-8-8-8-8-8-8-8-8-8-8-8-8-8-8-8--5-5-5-5-5-5-5-5--7-7-7-7-7-7-7-7---|
C|--8-8-8-8-8-8-8-8-8-8-8-8-8-8-8-8-------------------7-7-7-7-7-7-7-7---|


D|----------------------------------------------------------------------|
A|----------------------------------------------------------------------|
F|-----------------------------------7-7-7-7-7-7-7-7--------------------|
C|--8-8-8-8-8-8-8-8-8-8-8-8-8-8-8-8--7-7-7-7-7-7-7-7--7-7-7-7-7-7-7-7---|
G|--8-8-8-8-8-8-8-8-8-8-8-8-8-8-8-8--5-5-5-5-5-5-5-5--7-7-7-7-7-7-7-7---|
C|--8-8-8-8-8-8-8-8-8-8-8-8-8-8-8-8-------------------7-7-7-7-7-7-7-7---|


D|-----------------------------------------------------|
A|----------------------------------------9/10-8-6-5---|
F|-----------------------------------------------------|
C|--8-8-8-8-8-8-8-8-8-8-8-8-8-8-8-8--7~----------------|
G|--8-8-8-8-8-8-8-8-8-8-8-8-8-8-8-8--7~----------------|
C|--8-8-8-8-8-8-8-8-8-8-8-8-8-8-8-8--7~----------------|


[Chorus]:


D|--------------------------------------------------------------------|
A|--------------------------------------------------------------------|
F|--------------------------------------------------------------------|
C|--0-0-0-0-0-0-0-0-0-0-0-0-0-0-0-0-0-0-0-0-0-0-0-0-0-0-0-0-0-0-0-0---|
G|--0-0-0-0-0-0-0-0-0-0-0-0-0-0-0-0-0-0-0-0-0-0-0-0-0-0-0-0-0-0-0-0---|
C|--0-0-0-0-0-0-0-0-0-0-0-0-0-0-0-0-0-0-0-0-0-0-0-0-0-0-0-0-0-0-0-0---|


D|--------------------------------------------------------------------|
A|--------------------------------------------------------------------|
F|--------------------------------------------------------------------|
C|--8-8-8-8-8-8-8-8-8-8-8-8-8-8-8-8-8-8-8-8-8-8-8-8-7-7-7-7-7-7-7-7---|
G|--8-8-8-8-8-8-8-8-8-8-8-8-8-8-8-8-8-8-8-8-8-8-8-8-7-7-7-7-7-7-7-7---|
C|--8-8-8-8-8-8-8-8-8-8-8-8-8-8-8-8-8-8-8-8-8-8-8-8-7-7-7-7-7-7-7-7---|


D|--------------------------------------------------------------------|
A|--------------------------------------------------------------------|
F|--------------------------------------------------------------------|
C|--0-0-0-0-0-0-0-0-0-0-0-0-0-0-0-0-0-0-0-0-0-0-0-0-0-0-0-0-0-0-0-0---|
G|--0-0-0-0-0-0-0-0-0-0-0-0-0-0-0-0-0-0-0-0-0-0-0-0-0-0-0-0-0-0-0-0---|
C|--0-0-0-0-0-0-0-0-0-0-0-0-0-0-0-0-0-0-0-0-0-0-0-0-0-0-0-0-0-0-0-0---|


D|--------------------------------------------------------------------|
A|--------------------------------------------------------------------|
F|--------------------------------------------------------------------|
C|--8-8-8-8-8-8-8-8-8-8-8-8-8-8-8-8-8-8-8-8-8-8-8-8-7-7-7-7-7-7-7-7---|
G|--8-8-8-8-8-8-8-8-8-8-8-8-8-8-8-8-8-8-8-8-8-8-8-8-7-7-7-7-7-7-7-7---|
C|--8-8-8-8-8-8-8-8-8-8-8-8-8-8-8-8-8-8-8-8-8-8-8-8-7-7-7-7-7-7-7-7---|


D|------------------------------------------------------------------------------|
A|------------------------------------------------------------------------------|
F|------------------------------------------------------------------------------|
C|-------0--0-0-0-------0--0-0-0---0--0--------0--0-0-0-------0--0-0-0---0--0---|
G|--0-0--0--0-0-0--0-0--0--0-0-0---0--0---0-0--0--0-0-0--0-0--0--0-0-0---0--0---|
C|--0-0--0--0-0-0--0-0--0--0-0-0---0--0---0-0--0--0-0-0--0-0--0--0-0-0---0--0---|
    . .            . .                    . .            . .


D|-------------------------------------------------------------------------------|
A|-------------------------------------------------------------------------------|
F|-------------------------------------------------------------------------------|
C|-------0--0-0-0-------0--0-0-0---0--0--------7h8--8--8-------7h8--8--8--7--7---|
G|--0-0--0--0-0-0--0-0--0--0-0-0---0--0---8-8--7h8--8--8--8-8--7h8--8--8--7--7---|
C|--0-0--0--0-0-0--0-0--0--0-0-0---0--0---8-8--7h8--8--8--8-8--7h8--8--8--7--7---|
    . .            . .                    . .             . .


[Post-Chorus]:


D|---------------------------|
A|--6--6--6--6--6--6--6--6---|
F|--7--7--7--7--7--7--7--7---|
C|--7--7--7--7--7--7--7--7---|
G|---------------------------|
C|---------------------------|


[Verse 2]:


D|---------------------------------------------------------------------|
A|---------------------------------------------------------------------|
F|---------------------------------------------------------------------|
C|---------------------------------------------------------------------|
G|--0-0-0-0-0-0-0-0-0-0-0-0-0-0-0-0--8-8-8-8-8-8-8-8-8-8-8-8-8-8-8-8---|
C|--0-0-0-0-0-0-0-0-0-0-0-0-0-0-0-0--8-8-8-8-8-8-8-8-8-8-8-8-8-8-8-8---|
    . . . . . . . . . . . . . . . .  . . . . . . . . . . . . . . . .


D|---------------------------------------------------------------------|
A|---------------------------------------------------------------------|
F|---------------------------------------------------------------------|
C|---------------------------------------------------------------------|
G|--5-5-5-5-5-5-5-5-5-5-5-5-5-5-5-5--7-7-7-7-7-7-7-7-7-7-7-7-7-7-7-7---|
C|--5-5-5-5-5-5-5-5-5-5-5-5-5-5-5-5--7-7-7-7-7-7-7-7-7-7-7-7-7-7-7-7---|
    . . . . . . . . . . . . . . . .  . . . . . . . . . . . . . . . .


D|----------------------------------------------------------------|
A|----------------------------------------------------------------|
F|----------------------------------------------------------------|
C|-------0--0-------0--0-------0--------0--0-------0--0-------0---|
G|--0-0--0--0--0-0--0--0--0-0--0---0-0--0--0--0-0--0--0--0-0--0---|
C|--0-0--0--0--0-0--0--0--0-0--0---0-0--0--0--0-0--0--0--0-0--0---|
    . .        . .        . .      . .        . .        . .


D|----------------------------------------------------------------|
A|----------------------------------------------------------------|
F|----------------------------------------------------------------|
C|-------8--8-------8--8-------8--------8--8-------8--8-------8---|
G|--8-8--8--8--8-8--8--8--8-8--8---8-8--8--8--8-8--8--8--8-8--8---|
C|--8-8--8--8--8-8--8--8--8-8--8---8-8--8--8--8-8--8--8--8-8--8---|
    . .        . .        . .      . .        . .        . .


D|----------------------------------------------------------------|
A|----------------------------------------------------------------|
F|----------------------------------------------------------------|
C|-------5--5-------5--5-------5--------5--5-------5--5-------5---|
G|--5-5--5--5--5-5--5--5--5-5--5---5-5--5--5--5-5--5--5--5-5--5---|
C|--5-5--5--5--5-5--5--5--5-5--5---5-5--5--5--5-5--5--5--5-5--5---|
    . .        . .        . .      . .        . .        . .


D|----------------------------------------------------------------|
A|----------------------------------------------------------------|
F|----------------------------------------------------------------|
C|-------7--7-------7--7-------7--------7--7-------7--7-------7---|
G|--7-7--7--7--7-7--7--7--7-7--7---7-7--7--7--7-7--7--7--7-7--7---|
C|--7-7--7--7--7-7--7--7--7-7--7---7-7--7--7--7-7--7--7--7-7--7---|
    . .        . .        . .      . .        . .        . .


[Pre-Chorus]:


D|----------------------------------------------------------------------|
A|----------------------------------------------------------------------|
F|-----------------------------------7-7-7-7-7-7-7-7--------------------|
C|--8-8-8-8-8-8-8-8-8-8-8-8-8-8-8-8--7-7-7-7-7-7-7-7--7-7-7-7-7-7-7-7---|
G|--8-8-8-8-8-8-8-8-8-8-8-8-8-8-8-8--5-5-5-5-5-5-5-5--7-7-7-7-7-7-7-7---|
C|--8-8-8-8-8-8-8-8-8-8-8-8-8-8-8-8-------------------7-7-7-7-7-7-7-7---|


D|----------------------------------------------------------------------|
A|----------------------------------------------------------------------|
F|-----------------------------------7-7-7-7-7-7-7-7--------------------|
C|--8-8-8-8-8-8-8-8-8-8-8-8-8-8-8-8--7-7-7-7-7-7-7-7--7-7-7-7-7-7-7-7---|
G|--8-8-8-8-8-8-8-8-8-8-8-8-8-8-8-8--5-5-5-5-5-5-5-5--7-7-7-7-7-7-7-7---|
C|--8-8-8-8-8-8-8-8-8-8-8-8-8-8-8-8-------------------7-7-7-7-7-7-7-7---|


D|----------------------------------------------------------------------|
A|----------------------------------------------------------------------|
F|-----------------------------------7-7-7-7-7-7-7-7--------------------|
C|--8-8-8-8-8-8-8-8-8-8-8-8-8-8-8-8--7-7-7-7-7-7-7-7--7-7-7-7-7-7-7-7---|
G|--8-8-8-8-8-8-8-8-8-8-8-8-8-8-8-8--5-5-5-5-5-5-5-5--7-7-7-7-7-7-7-7---|
C|--8-8-8-8-8-8-8-8-8-8-8-8-8-8-8-8-------------------7-7-7-7-7-7-7-7---|


D|-----------------------------------------------------|
A|------------------------------------------10-8-6-5---|
F|-----------------------------------------------------|
C|--8-8-8-8-8-8-8-8-8-8-8-8-8-8-8-8--7~----------------|
G|--8-8-8-8-8-8-8-8-8-8-8-8-8-8-8-8--7~----------------|
C|--8-8-8-8-8-8-8-8-8-8-8-8-8-8-8-8--7~----------------|


[Chorus]:


D|--------------------------------------------------------------------|
A|--------------------------------------------------------------------|
F|--------------------------------------------------------------------|
C|--0-0-0-0-0-0-0-0-0-0-0-0-0-0-0-0-0-0-0-0-0-0-0-0-0-0-0-0-0-0-0-0---|
G|--0-0-0-0-0-0-0-0-0-0-0-0-0-0-0-0-0-0-0-0-0-0-0-0-0-0-0-0-0-0-0-0---|
C|--0-0-0-0-0-0-0-0-0-0-0-0-0-0-0-0-0-0-0-0-0-0-0-0-0-0-0-0-0-0-0-0---|


D|--------------------------------------------------------------------|
A|--------------------------------------------------------------------|
F|--------------------------------------------------------------------|
C|--8-8-8-8-8-8-8-8-8-8-8-8-8-8-8-8-8-8-8-8-8-8-8-8-7-7-7-7-7-7-7-7---|
G|--8-8-8-8-8-8-8-8-8-8-8-8-8-8-8-8-8-8-8-8-8-8-8-8-7-7-7-7-7-7-7-7---|
C|--8-8-8-8-8-8-8-8-8-8-8-8-8-8-8-8-8-8-8-8-8-8-8-8-7-7-7-7-7-7-7-7---|


D|--------------------------------------------------------------------|
A|--------------------------------------------------------------------|
F|--------------------------------------------------------------------|
C|--0-0-0-0-0-0-0-0-0-0-0-0-0-0-0-0-0-0-0-0-0-0-0-0-0-0-0-0-0-0-0-0---|
G|--0-0-0-0-0-0-0-0-0-0-0-0-0-0-0-0-0-0-0-0-0-0-0-0-0-0-0-0-0-0-0-0---|
C|--0-0-0-0-0-0-0-0-0-0-0-0-0-0-0-0-0-0-0-0-0-0-0-0-0-0-0-0-0-0-0-0---|


D|--------------------------------------------------------------------|
A|--------------------------------------------------------------------|
F|--------------------------------------------------------------------|
C|--8-8-8-8-8-8-8-8-8-8-8-8-8-8-8-8-8-8-8-8-8-8-8-8-7-7-7-7-7-7-7-7---|
G|--8-8-8-8-8-8-8-8-8-8-8-8-8-8-8-8-8-8-8-8-8-8-8-8-7-7-7-7-7-7-7-7---|
C|--8-8-8-8-8-8-8-8-8-8-8-8-8-8-8-8-8-8-8-8-8-8-8-8-7-7-7-7-7-7-7-7---|


D|------------------------------------------------------------------------------|
A|------------------------------------------------------------------------------|
F|------------------------------------------------------------------------------|
C|-------0--0-0-0-------0--0-0-0---0--0--------0--0-0-0-------0--0-0-0---0--0---|
G|--0-0--0--0-0-0--0-0--0--0-0-0---0--0---0-0--0--0-0-0--0-0--0--0-0-0---0--0---|
C|--0-0--0--0-0-0--0-0--0--0-0-0---0--0---0-0--0--0-0-0--0-0--0--0-0-0---0--0---|
    . .            . .                    . .            . .


D|-------------------------------------------------------------------------------|
A|-------------------------------------------------------------------------------|
F|-------------------------------------------------------------------------------|
C|-------0--0-0-0-------0--0-0-0---0--0--------7h8--8--8-------7h8--8--8--7--7---|
G|--0-0--0--0-0-0--0-0--0--0-0-0---0--0---8-8--7h8--8--8--8-8--7h8--8--8--7--7---|
C|--0-0--0--0-0-0--0-0--0--0-0-0---0--0---8-8--7h8--8--8--8-8--7h8--8--8--7--7---|
    . .            . .                    . .             . .


[Breakdown]:


D|--------------------------------------------------------|
A|--------------------------------------------------------|
F|--7--10-9--12--10-14--12--15--7--10-9--12--10-9--7--6---|
C|--x--x--x--x---x--x---x---x---x--x--x--x---x--x--x--x---|
G|--5--8--7--10--8--12--10--13--5--8--7--10--8--7--5--4---|
C|--------------------------------------------------------|


D|--------------------------------------------------------|
A|--------------------------------------------------------|
F|--7--10-9--12--10-14--12--15--7--10-9--12--10-9--7--6---|
C|--x--x--x--x---x--x---x---x---x--x--x--x---x--x--x--x---|
G|--5--8--7--10--8--12--10--13--5--8--7--10--8--7--5--4---|
C|--------------------------------------------------------|


D|-------------------------------------------------------------------------------------------------------|
A|-------------------------------------------------------------------------------------------------------|
F|-------------------------------------------------------------------------------------------------------|
C|---------0---------0-----0----------0------------------------0---------0-----0-------------------------|
G|--0-0-0--0--0-0-0--0--0--0---0-0-0--0--0-0-0--4-4-4---0-0-0--0--0-0-0--0--0--0---0--0--0--11--11--11---|
C|--0-0-0--0--0-0-0--0--0--0---0-0-0--0--0-0-0----------0-0-0--0--0-0-0--0--0--0---0--0--0--11--11--11---|
    . . .     . . .     .      . . .  .  . . .          . . .     . . .     .      .  .  .  .   .   .


D|-------------------------------------------------------------------------------------------------------|
A|-------------------------------------------------------------------------------------------------------|
F|-------------------------------------------------------------------------------------------------------|
C|---------0---------0-----0----------0------------------------0---------0-----0-------------------------|
G|--0-0-0--0--0-0-0--0--0--0---0-0-0--0--0-0-0--4-4-4---0-0-0--0--0-0-0--0--0--0---0--0--0--11--11--11---|
C|--0-0-0--0--0-0-0--0--0--0---0-0-0--0--0-0-0----------0-0-0--0--0-0-0--0--0--0---0--0--0--11--11--11---|
    . . .     . . .     .      . . .     . . .          . . .     . . .     .      .  .  .  .   .   .


D|------------------------------------------------------------------------------------------------------|
A|------------------------------------------------------------------------------------------------------|
F|------------------------------------------------------------------------------------------------------|
C|---------8---------8-----8---------8----------8---------8----------8-----8---------8-------------11---|
G|--8-8-8--8--8-8-8--8--8--8--8-8-8--8---8-8-8--8--8-8-8--8---8-8-8--8--8--8--8-8-8--8---11-11-11--11---|
C|--8-8-8--8--8-8-8--8--8--8--8-8-8--8---8-8-8--8--8-8-8--8---8-8-8--8--8--8--8-8-8--8---11-11-11--11---|
    . . .     . . .     .     . . .      . . .     . . .      . . .     .     . . .      .  .  .


D|-------------------------------------------------------------------------------------------------------|
A|-------------------------------------------------------------------------------------------------------|
F|-------------------------------------------------------------------------------------------------------|
C|---------0---------0-----0----------0------------------------0---------0-----0-------------------------|
G|--0-0-0--0--0-0-0--0--0--0---0-0-0--0--0-0-0--4-4-4---0-0-0--0--0-0-0--0--0--0---0--0--0--11--11--11---|
C|--0-0-0--0--0-0-0--0--0--0---0-0-0--0--0-0-0----------0-0-0--0--0-0-0--0--0--0---0--0--0--11--11--11---|
    . . .     . . .     .      . . .     . . .          . . .     . . .     .      .  .  .  .   .   .


[Pre-Chorus 2]:


D|------------5~-------------------------------------------------------------------3---------|
A|------------6~--------1~---------------------------------------------------5-------5---5---|
F|------------7~--------2~------------------------------------------5--5-------5-------5-----|
C|--8~--------7~--------2~--------3-3-3-3-3-3-3-3-3-3-3-3-3-3-3-3---5--5---------5-----------|
G|--8~--------5~--------0~--------1-1-1-1-1-1-1-1-1-1-1-1-1-1-1-1---3--3---------------------|
C|--8~---------------------------------------------------------------------------------------|
                                  . . . . . . . . . . . . . . . .


[Chorus]:


D|--------------------------------------------------------------------|
A|--------------------------------------------------------------------|
F|--------------------------------------------------------------------|
C|--0-0-0-0-0-0-0-0-0-0-0-0-0-0-0-0-0-0-0-0-0-0-0-0-0-0-0-0-0-0-0-0---|
G|--0-0-0-0-0-0-0-0-0-0-0-0-0-0-0-0-0-0-0-0-0-0-0-0-0-0-0-0-0-0-0-0---|
C|--0-0-0-0-0-0-0-0-0-0-0-0-0-0-0-0-0-0-0-0-0-0-0-0-0-0-0-0-0-0-0-0---|


D|--------------------------------------------------------------------|
A|--------------------------------------------------------------------|
F|--------------------------------------------------------------------|
C|--8-8-8-8-8-8-8-8-8-8-8-8-8-8-8-8-8-8-8-8-8-8-8-8-7-7-7-7-7-7-7-7---|
G|--8-8-8-8-8-8-8-8-8-8-8-8-8-8-8-8-8-8-8-8-8-8-8-8-7-7-7-7-7-7-7-7---|
C|--8-8-8-8-8-8-8-8-8-8-8-8-8-8-8-8-8-8-8-8-8-8-8-8-7-7-7-7-7-7-7-7---|


D|--------------------------------------------------------------------|
A|--------------------------------------------------------------------|
F|--------------------------------------------------------------------|
C|--0-0-0-0-0-0-0-0-0-0-0-0-0-0-0-0-0-0-0-0-0-0-0-0-0-0-0-0-0-0-0-0---|
G|--0-0-0-0-0-0-0-0-0-0-0-0-0-0-0-0-0-0-0-0-0-0-0-0-0-0-0-0-0-0-0-0---|
C|--0-0-0-0-0-0-0-0-0-0-0-0-0-0-0-0-0-0-0-0-0-0-0-0-0-0-0-0-0-0-0-0---|


D|--------------------------------------------------------------------|
A|--------------------------------------------------------------------|
F|--------------------------------------------------------------------|
C|--8-8-8-8-8-8-8-8-8-8-8-8-8-8-8-8-8-8-8-8-8-8-8-8-7-7-7-7-7-7-7-7---|
G|--8-8-8-8-8-8-8-8-8-8-8-8-8-8-8-8-8-8-8-8-8-8-8-8-7-7-7-7-7-7-7-7---|
C|--8-8-8-8-8-8-8-8-8-8-8-8-8-8-8-8-8-8-8-8-8-8-8-8-7-7-7-7-7-7-7-7---|


D|------------------------------------------------------------------------------|
A|------------------------------------------------------------------------------|
F|------------------------------------------------------------------------------|
C|-------0--0-0-0-------0--0-0-0---0--0--------0--0-0-0-------0--0-0-0---0--0---|
G|--0-0--0--0-0-0--0-0--0--0-0-0---0--0---0-0--0--0-0-0--0-0--0--0-0-0---0--0---|
C|--0-0--0--0-0-0--0-0--0--0-0-0---0--0---0-0--0--0-0-0--0-0--0--0-0-0---0--0---|
    . .            . .                    . .            . .


D|--------------------------------------------------------------------|
A|--------------------------------------------------------------------|
F|--------------------------------------------------------------------|
C|-------0--0-0-0-------0--0-0-0---0--0--------7h8--8--8------7--7\---|
G|--0-0--0--0-0-0--0-0--0--0-0-0---0--0---8-8--7h8--8--8--8---7--7\---|
C|--0-0--0--0-0-0--0-0--0--0-0-0---0--0---8-8--7h8--8--8--8---7--7\---|
    . .            . .                    . .             . 


[Outro]:


D|--5~---|
A|--6~---|
F|--7~---|
C|--0~---|
G|--0~---|
C|--0~---|







6. Reassamble



[Intro]:


C#|------------------------------------------------|
G#|------------------------------------------------|
E |--------------------------------------------2---|
B |--0~----------8~----------5~----------3~----2---|
F#|--0~----------8~----------5~----------3~----0---|
B |--0~----------8~----------5~----------3~--------|


[Verse]:


C#|------------------------------------------------------|
G#|------------------------------------------------------|
E |------------------------------------------------------|
B |------------------------------------------------------|
F#|--0-0-0--0-0-0--0-0-0--0-0-0--0-0-0--0-0-0--8-7-4-5---|
B |--0-0-0--0-0-0--0-0-0--0-0-0--0-0-0--0-0-0------------|
     . . .  . . .  . . .  . . .  . . .  . . .


C#|----------------------------------------------------------|
G#|----------------------------------------------------------|
E |----------------------------------------------------------|
B |----------------------------------------------------------|
F#|--0-0-0--0-0-0--0-0-0--0-0-0--0-0-0--0-0-0--7h8p7p0-5-4---|
B |--0-0-0--0-0-0--0-0-0--0-0-0--0-0-0--0-0-0----------------|
     . . .  . . .  . . .  . . .  . . .  . . .


C#|-------------------------------------------------------------------------------|
G#|-------------------------------------------------------------------------------|
E |-------------------------------------------------------------------------------|
B |--0-----1---0---0---1-0---------------------0-----1---0---0--------------------|
F#|--0-0-0-1-0-0-0-0-0-1-0-0--4-4-4-4-5-5-5-5--0-0-0-1-0-0-0-0--------------------|
B |--0-0-0-1-0-0-0-0-0-1-0-0-------------------0-0-0-1-0-0-0-0--12-10-0-8-0-7-8---|
       . .   .   .   .     .                     . .   .   .


C#|-----------------------------------------------------------------------------------|
G#|-----------------------------------------------------------------------------------|
E |-----------------------------------------------------------------------------------|
B |--0-----1---0---0---1-0---------------------0-----1---0---0------------------------|
F#|--0-0-0-1-0-0-0-0-0-1-0-0--4-4-4-4-5-5-5-5--0-0-0-1-0-0-0-0------------------------|
B |--0-0-0-1-0-0-0-0-0-1-0-0-------------------0-0-0-1-0-0-0-0--12-10-0-13-12-10-12---|
       . .   .   .   .     .                     . .   .   .


C#|-----------------------------------------------------------------------------------------------|
G#|-----------------------------------------------------------------------------------------------|
E |-----------------------------------------------------------------------------------------------|
B |-----------------------------------------------------------------------------------------------|
F#|--0-0-0--0-0-0--0-0-0----0--0-0-0--0-0-0--0-0-0--0-0-0--0-0-0--0-0-0---0---0-0-0--0--0--0--0---|
B |--0-0-0--0-0-0--0-0-0----0--0-0-0--0-0-0--0-0-0--0-0-0--0-0-0--0-0-0---0---0-0-0--0--0--0--0---|
     . . .  . . .  . . .    .  . . .  . . .  . . .  . . .  . . .  . . .   .   . . .  .  .  .  .


C#|------------------------------------------------------------------------------------------|
G#|------------------------------------------------------------------------------------------|
E |------------------------------------------------------------------------------------------|
B |-------------------------------------------------------------------------------------3~---|
F#|--8-8-8--8-8-8--8-8-8---8--8-8-8--8-8-8--8-8-8--5-5-5-5-5-5-5-5-5-5-5-5-5-5-5-5-5-5--3~---|
B |--8-8-8--8-8-8--8-8-8---8--8-8-8--8-8-8--8-8-8--5-5-5-5-5-5-5-5-5-5-5-5-5-5-5-5-5-5--3~---|
     . . .  . . .  . . .   .  . . .  . . .  . . .  . . . . . . . . . . . . . . . . . .


[Pre-Chorus]:


C#|-------------|
G#|-------------|
E |-------------|
B |-------------|
F#|--10-8-7-----|
B |---------8---|


[Chorus]:


C#|---------------------------------------------------------------------|
G#|---------------------------------------------------------------------|
E |-----------------------------------3-3-3-3-3-3-3-3-3-3-3-3-3-3-3-3---|
B |--0-0-0-0-0-0-0-0-0-0-0-0-0-0-0-0--3-3-3-3-3-3-3-3-3-3-3-3-3-3-3-3---|
F#|--0-0-0-0-0-0-0-0-0-0-0-0-0-0-0-0--1-1-1-1-1-1-1-1-1-1-1-1-1-1-1-1---|
B |--0-0-0-0-0-0-0-0-0-0-0-0-0-0-0-0------------------------------------|


C#|---------------------------------------------------------------------|
G#|---------------------------------------------------------------------|
E |-----------------------------------5-5-5-5-5-5-5-5-5-5-5-5-5-5-5-5---|
B |--3-3-3-3-3-3-3-3-3-3-3-3-3-3-3-3--5-5-5-5-5-5-5-5-5-5-5-5-5-5-5-5---|
F#|--3-3-3-3-3-3-3-3-3-3-3-3-3-3-3-3--3-3-3-3-3-3-3-3-3-3-3-3-3-3-3-3---|
B |--3-3-3-3-3-3-3-3-3-3-3-3-3-3-3-3------------------------------------|


C#|---------------------------------------------------------------------|
G#|---------------------------------------------------------------------|
E |-----------------------------------3-3-3-3-3-3-3-3-3-3-3-3-3-3-3-3---|
B |--0-0-0-0-0-0-0-0-0-0-0-0-0-0-0-0--3-3-3-3-3-3-3-3-3-3-3-3-3-3-3-3---|
F#|--0-0-0-0-0-0-0-0-0-0-0-0-0-0-0-0--1-1-1-1-1-1-1-1-1-1-1-1-1-1-1-1---|
B |--0-0-0-0-0-0-0-0-0-0-0-0-0-0-0-0------------------------------------|


C#|-------------------------------------------------------------|
G#|-------------------------------------------------------------|
E |-------------------------------------------------------------|
B |--5-5-5-5-5-5-5-5-5-5-5-5-5-5-5-5--3-3-3-3-3-3-3-3-3-3-3-3---|
F#|--5-5-5-5-5-5-5-5-5-5-5-5-5-5-5-5--3-3-3-3-3-3-3-3-3-3-3-3---|
B |--5-5-5-5-5-5-5-5-5-5-5-5-5-5-5-5--3-3-3-3-3-3-3-3-3-3-3-3---|


[Verse 2]:


C#|----------------------------------------------------------------------|
G#|----------------------------------------------------------------------|
E |----------------------------------------------------------------------|
B |----------------------------------------------------------------------|
F#|--0-0-0--0-0-0----0-0-0--0-0-0--0-0-0--0-0-0--0-0-0--0-0-0--8-7-4-5---|
B |--0-0-0--0-0-0----0-0-0--0-0-0--0-0-0--0-0-0--0-0-0--0-0-0------------|
     . . .  . . .    . . .  . . .  . . .  . . .  . . .  . . .


C#|------------------------------------------------------------|
G#|------------------------------------------------------------|
E |------------------------------------------------------------|
B |------------------------------------------------------------|
F#|--0-0-0--0-0-0--0-0-0--0-0-0--0-0-0--0-0-0--7h8p7p0-10-12---|
B |--0-0-0--0-0-0--0-0-0--0-0-0--0-0-0--0-0-0------------------|
     . . .  . . .  . . .  . . .  . . .  . . .


C#|----------------------------------------------------------------------|
G#|----------------------------------------------------------------------|
E |----------------------------------------------------------------------|
B |----------------------------------------------------------------------|
F#|--0-0-0--0-0-0----0-0-0--0-0-0--0-0-0--0-0-0--0-0-0--0-0-0--8-7-4-5---|
B |--0-0-0--0-0-0----0-0-0--0-0-0--0-0-0--0-0-0--0-0-0--0-0-0------------|
     . . .  . . .    . . .  . . .  . . .  . . .  . . .  . . .


C#|------------------------------------------------------------|
G#|------------------------------------------------------------|
E |------------------------------------------------------------|
B |------------------------------------------------------------|
F#|--0-0-0--0-0-0--0-0-0--0-0-0--0-0-0--0-0-0--7h8p7p0-10-12---|
B |--0-0-0--0-0-0--0-0-0--0-0-0--0-0-0--0-0-0------------------|
     . . .  . . .  . . .  . . .  . . .  . . .


C#|--------------------------------------------------------------------|
G#|--------------------------------------------------------------------|
E |--------------------------------------------------------------------|
B |--------------------------------------------------------------------|
F#|--------------------------------------------------------------------|
B |--0-0-0-0-0-0-0-0-0-0-0-0-0-0-0-0-0-0-0-0-0-0-0-0-0-0-0-0-0-0-0-0---|


C#|--------------------------------------------------------------------|
G#|--------------------------------------------------------------------|
E |--------------------------------------------------------------------|
B |--------------------------------------------------------------------|
F#|--------------------------------------------------------------------|
B |--8-8-8-8-8-8-8-8-8-8-8-8-8-8-8-8-8-8-8-8-8-8-8-8-8-8-8-8-8-8-8-8---|


C#|--------------------------------------------------------------------|
G#|--------------------------------------------------------------------|
E |--------------------------------------------------------------------|
B |--------------------------------------------------------------------|
F#|--------------------------------------------------------------------|
B |--5-5-5-5-5-5-5-5-5-5-5-5-5-5-5-5-5-5-5-5-5-5-5-5-5-5-5-5-5-5-5-5---|


C#|----------------------------------------------------|
G#|----------------------------------------------------|
E |----------------------------------------------------|
B |----------------------------------------------------|
F#|----------------------------------------------------|
B |--3-3-3-3-3-3-3-3-3-3-3-3-3-3-3-3-3-3-3-3-3-3-3-3---|


[Breakdown]:


C#|-------------------------------------------------------------------------------------------------|
G#|-------------------------------------------------------------------------------------------------|
E |-------------------------------------------------------------------------------------------------|
B |-------------------------------------------------------------------------------------------------|
F#|--0-0-0--0-0-0----0-0-0--0-0-0----0-0-0--0-0-0--0-0-0--0-0-0---0-0-0--0-0-0---0--0--0--0--0--0---|
B |--0-0-0--0-0-0----0-0-0--0-0-0----0-0-0--0-0-0--0-0-0--0-0-0---0-0-0--0-0-0---0--0--0--0--0--0---|
     . . .  . . .    . . .  . . .    . . .  . . .  . . .  . . .   . . .  . . .   .  .  .  .  .  .


C#|-----------------------------------------------------------------------------------------|
G#|-----------------------------------------------------------------------------------------|
E |-----------------------------------------------------------------------------------------|
B |-----------------------------------------------------------------------------------------|
F#|--0-0-0--0-0-0----0-0-0--0-0-0----0-0-0--0-0-0--0-0-0--0-0-0---0-0-0--0-0-0---0-0-0--0---|
B |--0-0-0--0-0-0----0-0-0--0-0-0----0-0-0--0-0-0--0-0-0--0-0-0---0-0-0--0-0-0---0-0-0--0---|
     . . .  . . .    . . .  . . .    . . .  . . .  . . .  . . .   . . .  . . .   . . .  .


C#|------------------------------------------------------------------------------|
G#|------------------------------------------------------------------------------|
E |------------------------------------------------------------------------------|
B |------------------------------------------------------------------------------|
F#|--0-0-0--0-0-0----0-0-0--0-0-0----0-0-0--0-0-0--0-0-0--0-0-0---0-0-0--0-0-0---|
B |--0-0-0--0-0-0----0-0-0--0-0-0----0-0-0--0-0-0--0-0-0--0-0-0---0-0-0--0-0-0---|
     . . .  . . .    . . .  . . .    . . .  . . .  . . .  . . .   . . .  . . .


C#|----------------------------------------------------------------------------------------|
G#|----------------------------------------------------------------------------------------|
E |----------------------------------------------------------------------------------------|
B |----------------------------------------------------------------------------------------|
F#|--0-0-0--0-0-0----0-0-0--0-0-0----0--0--0--0--0--0--0-0-0--0-0-0----0-0-0--0-0-0--------|
B |--0-0-0--0-0-0----0-0-0--0-0-0----0--0--0--0--0--0--0-0-0--0-0-0----0-0-0--0-0-0--12\---|
     . . .  . . .    . . .  . . .    .  .  .  .  .  .  . . .  . . .    . . .  . . .


[Chorus]:


C#|----------------------------------------------|
G#|----------------------------------------------|
E |------------3-3-3-3-3-3-3-3-3-3-3-3-3-3-3-3---|
B |--0~--------3-3-3-3-3-3-3-3-3-3-3-3-3-3-3-3---|
F#|--0~--------1-1-1-1-1-1-1-1-1-1-1-1-1-1-1-1---|
B |--0~------------------------------------------|


C#|---------------------------------------------------------------------|
G#|---------------------------------------------------------------------|
E |-----------------------------------5-5-5-5-5-5-5-5-5-5-5-5-5-5-5-5---|
B |--3-3-3-3-3-3-3-3-3-3-3-3-3-3-3-3--5-5-5-5-5-5-5-5-5-5-5-5-5-5-5-5---|
F#|--3-3-3-3-3-3-3-3-3-3-3-3-3-3-3-3--3-3-3-3-3-3-3-3-3-3-3-3-3-3-3-3---|
B |--3-3-3-3-3-3-3-3-3-3-3-3-3-3-3-3------------------------------------|


C#|---------------------------------------------------------------------|
G#|---------------------------------------------------------------------|
E |-----------------------------------3-3-3-3-3-3-3-3-3-3-3-3-3-3-3-3---|
B |--0-0-0-0-0-0-0-0-0-0-0-0-0-0-0-0--3-3-3-3-3-3-3-3-3-3-3-3-3-3-3-3---|
F#|--0-0-0-0-0-0-0-0-0-0-0-0-0-0-0-0--1-1-1-1-1-1-1-1-1-1-1-1-1-1-1-1---|
B |--0-0-0-0-0-0-0-0-0-0-0-0-0-0-0-0------------------------------------|


C#|----------------------------------------------------------------|
G#|----------------------------------------------------------------|
E |------------------------------------------------------------2---|
B |--5-5-5-5-5-5-5-5-5-5-5-5-5-5-5-5--3-3-3-3-3-3-3-3-3-3-3-3--2---|
F#|--5-5-5-5-5-5-5-5-5-5-5-5-5-5-5-5--3-3-3-3-3-3-3-3-3-3-3-3--0---|
B |--5-5-5-5-5-5-5-5-5-5-5-5-5-5-5-5--3-3-3-3-3-3-3-3-3-3-3-3------|


[Outro]:


C#|--------------------------------------------------------------------------------------------------------|
G#|--3--3--3--3--3--3--3--3-3-5--5--5--5--5--5--5--5-5-3--3--3--3--3--3--3--3-3-5--5--5--5--5--5--5--5-5---|
E |--3--3--3--3--3--3--3--3-3-5--5--5--5--5--5--5--5-5-2--2--2--2--2--2--2--2-2-5--5--5--5--5--5--5--5-5---|
B |--3--3--3--3--3--3--3--3-3-5--5--5--5--5--5--5--5-5-0--0--0--0--0--0--0--0-0-5--5--5--5--5--5--5--5-5---|
F#|--1--1--1--1--1--1--1--1-1-3--3--3--3--3--3--3--3-3-0--0--0--0--0--0--0--0-0-3--3--3--3--3--3--3--3-3---|
B |----------------------------------------------------0--0--0--0--0--0--0--0-0----------------------------|


C#|--------------------------------------------------------------------------------------------------------|
G#|--3--3--3--3--3--3--3--3-3-5--5--5--5--5--5--5--5-5-3--3--3--3--3--3--3--3-3-5--5--5--5--5--5--5--5-5---|
E |--3--3--3--3--3--3--3--3-3-5--5--5--5--5--5--5--5-5-2--2--2--2--2--2--2--2-2-5--5--5--5--5--5--5--5-5---|
B |--3--3--3--3--3--3--3--3-3-5--5--5--5--5--5--5--5-5-0--0--0--0--0--0--0--0-0-5--5--5--5--5--5--5--5-5---|
F#|--1--1--1--1--1--1--1--1-1-3--3--3--3--3--3--3--3-3-0--0--0--0--0--0--0--0-0-3--3--3--3--3--3--3--3-3---|
B |----------------------------------------------------0--0--0--0--0--0--0--0-0----------------------------|


C#|--------------------------------------------------------------------------------------------------------|
G#|--3--3--3--3--3--3--3--3-3-5--5--5--5--5--5--5--5-5-3--3--3--3--3--3--3--3-3-5--5--5--5--5--5--5--5-5---|
E |--3--3--3--3--3--3--3--3-3-5--5--5--5--5--5--5--5-5-2--2--2--2--2--2--2--2-2-5--5--5--5--5--5--5--5-5---|
B |--3--3--3--3--3--3--3--3-3-5--5--5--5--5--5--5--5-5-0--0--0--0--0--0--0--0-0-5--5--5--5--5--5--5--5-5---|
F#|--1--1--1--1--1--1--1--1-1-3--3--3--3--3--3--3--3-3-0--0--0--0--0--0--0--0-0-3--3--3--3--3--3--3--3-3---|
B |----------------------------------------------------0--0--0--0--0--0--0--0-0----------------------------|


C#|----------------------------------------------------------------|
G#|--3~-----------5~-----------5-5-3~-----------5~-----------5-5---|
E |--3~-----------5~-----------5-5-2~-----------5~-----------5-5---|
B |--3~-----------5~-----------5-5-0~-----------5~-----------5-5---|
F#|--1~-----------3~-----------3-3-0~-----------3~-----------3-3---|
B |--------------------------------0~------------------------------|


C#|-------------------------------------------------------------------|
G#|--3~-----------5~-----------5-5-3~-----------5~-----------5-5-3~---|
E |--3~-----------5~-----------5-5-2~-----------5~-----------5-5-2~---|
B |--3~-----------5~-----------5-5-0~-----------5~-----------5-5-0~---|
F#|--1~-----------3~-----------3-3-0~-----------3~-----------3-3-0~---|
B |--------------------------------0~----------------------------0~---|







7. Justified



[Intro]:


D|---------------------------------------------------------------|
A|---------------------------------------------------------------|
F|-------------10~--------10~-------------------10~--------10~---|
C|--7~---------8~---------7~---------7~---------8~---------7~----|
G|--7~---------5~---------8~---------7~---------5~---------8~----|
C|--3~---------5~---------0~---------3~---------5~---------0~----|


D|-------------------------------------------------------------------------------------|
A|-------------------------------------------------------------------------------------|
F|-------------10~--------10~-------------------10~--------10~-------------------------|
C|--7~---------8~---------7~---------7~---------8~---------7~---------0~---------12\---|
G|--7~---------5~---------8~---------7~---------5~---------8~---------0~---------12\---|
C|--3~---------5~---------0~---------3~---------5~---------0~---------0~---------12\---|


[Chorus]:


D|------------------------------------------------------|
A|------------------5----------5------5-----------------|
F|------------------6----------6------6-----------------|
C|--3--x-x--3--x-x-----3-x-x-------3------x-x----7--8---|
G|--3--x-x--3--x-x-----3-x-x-------3------x-x-----------|
C|--3--x-x--3--x-x-----3-x-x-------3------x-x-5---------|


D|-----------------------------------------------------------|
A|------------------------------11---11---11---10-10-10-10---|
F|------------------------------10---10---10---10-10-10-10---|
C|--0--x-x--0--x-x-0-0---x-x-0-------------------------------|
G|--0--x-x--0--x-x-0-0---x-x-0-------------------------------|
C|--0--x-x--0--x-x-0-0---x-x-0-------------------------------|


D|------------------------------------------------------|
A|------------------5----------5------5-----------------|
F|------------------6----------6------6-----------------|
C|--3--x-x--3--x-x-----3-x-x-------3------x-x----7--8---|
G|--3--x-x--3--x-x-----3-x-x-------3------x-x-----------|
C|--3--x-x--3--x-x-----3-x-x-------3------x-x-5---------|


D|-----------------------------------------------------------|
A|------------------------------11---11---11---10-10-10-10---|
F|------------------------------10---10---10---10-10-10-10---|
C|--0--x-x--0--x-x-0-0---x-x-0-------------------------------|
G|--0--x-x--0--x-x-0-0---x-x-0-------------------------------|
C|--0--x-x--0--x-x-0-0---x-x-0-------------------------------|


D|-------------------------------------------------------------------------------------|
A|-------------------------------------------------------------------------------------|
F|-------------------------------------------------------------------------------------|
C|--12-12-12-12-7-7-7-7-7-8-8-8-8-10-10-10-10--12-12-12-12-7-7-7-7-7-8-8-8-8-8-8-8-8---|
G|--12-12-12-12-8-8-8-8-8-8-8-8-8-10-10-10-10--12-12-12-12-8-8-8-8-8-8-8-8-8-8-8-8-8---|
C|--12-12-12-12-7-7-7-7-7-8-8-8-8-10-10-10-10--12-12-12-12-7-7-7-7-7-8-8-8-8-8-8-8-8---|


D|----------------------------------------------|
A|----------------------------------------------|
F|----------------------------------------------|
C|--12-12-12-12-7-7-7-7-7-8-8-8-8-10-10-10-10---|
G|--12-12-12-12-8-8-8-8-8-8-8-8-8-10-10-10-10---|
C|--12-12-12-12-7-7-7-7-7-8-8-8-8-10-10-10-10---|


D|----------------------------------------------------|
A|----------------------------------------------------|
F|----------------------------------------------------|
C|--7-7-7-7-7-7-7-7-8-8-8-8-8-8-8-8-7-7-7-7-7-7-7-7---|
G|--3-3-3-3-3-3-3-3-5-5-5-5-5-5-5-5-0-0-0-0-0-0-0-0---|
C|--3-3-3-3-3-3-3-3-5-5-5-5-5-5-5-5-0-0-0-0-0-0-0-0---|


[Verse]:


D|-------------------------------------------------------------|
A|-------------------------------------------------------------|
F|--3-------3-------------------3-------3----------------------|
C|--7--x--x-7---x-x--------x-x--7-------7---x-x-10---10---10---|
G|-----x--x-----x-x-0---0--x-x------0-------x-x-8----8----8----|
C|-----x--x-----x-x-0---0--x-x------0-------x-x-8----8----8----|



D|----------------------------------------------------------|
A|----------------------------------------------------------|
F|--3-------3-------------------3-------3-------------------|
C|--7--x--x-7---x-x--------x-x--7-------7---x-x-1--1/4--3---|
G|-----x--x-----x-x-0---0--x-x------0-------x-x-1--1/4--3---|
C|-----x--x-----x-x-0---0--x-x------0-------x-x-1--1/4--3---|



D|-------------------------------------------------------------|
A|-------------------------------------------------------------|
F|--3-------3-------------------3-------3----------------------|
C|--7--x--x-7---x-x--------x-x--7-------7---x-x-10---10---10---|
G|-----x--x-----x-x-0---0--x-x------0-------x-x-8----8----8----|
C|-----x--x-----x-x-0---0--x-x------0-------x-x-8----8----8----|



D|-------------------------------------------------------|
A|-------------------------------------------------------|
F|--3-------3-------------------3------------------------|
C|--7--x--x-7---x-x--------x-x--7------7--8-----10--12---|
G|-----x--x-----x-x-0---0--x-x---------------------------|
C|-----x--x-----x-x-0---0--x-x------5--------8-----------|


[Chorus]:


D|------------------------------------------------------|
A|------------------5----------5------5-----------------|
F|------------------6----------6------6-----------------|
C|--3--x-x--3--x-x-----3-x-x-------3------x-x----7--8---|
G|--3--x-x--3--x-x-----3-x-x-------3------x-x-----------|
C|--3--x-x--3--x-x-----3-x-x-------3------x-x-5---------|


D|-----------------------------------------------------------|
A|------------------------------11---11---11---10-10-10-10---|
F|------------------------------10---10---10---10-10-10-10---|
C|--0--x-x--0--x-x-0-0---x-x-0-------------------------------|
G|--0--x-x--0--x-x-0-0---x-x-0-------------------------------|
C|--0--x-x--0--x-x-0-0---x-x-0-------------------------------|


D|------------------------------------------------------|
A|------------------5----------5------5-----------------|
F|------------------6----------6------6-----------------|
C|--3--x-x--3--x-x-----3-x-x-------3------x-x----7--8---|
G|--3--x-x--3--x-x-----3-x-x-------3------x-x-----------|
C|--3--x-x--3--x-x-----3-x-x-------3------x-x-5---------|


D|-----------------------------------------------------------|
A|------------------------------11---11---11---10-10-10-10---|
F|------------------------------10---10---10---10-10-10-10---|
C|--0--x-x--0--x-x-0-0---x-x-0-------------------------------|
G|--0--x-x--0--x-x-0-0---x-x-0-------------------------------|
C|--0--x-x--0--x-x-0-0---x-x-0-------------------------------|


D|-------------------------------------------------------------------------------------|
A|-------------------------------------------------------------------------------------|
F|-------------------------------------------------------------------------------------|
C|--12-12-12-12-7-7-7-7-7-8-8-8-8-10-10-10-10--12-12-12-12-7-7-7-7-7-8-8-8-8-8-8-8-8---|
G|--12-12-12-12-8-8-8-8-8-8-8-8-8-10-10-10-10--12-12-12-12-8-8-8-8-8-8-8-8-8-8-8-8-8---|
C|--12-12-12-12-7-7-7-7-7-8-8-8-8-10-10-10-10--12-12-12-12-7-7-7-7-7-8-8-8-8-8-8-8-8---|


D|----------------------------------------------|
A|----------------------------------------------|
F|----------------------------------------------|
C|--12-12-12-12-7-7-7-7-7-8-8-8-8-10-10-10-10---|
G|--12-12-12-12-8-8-8-8-8-8-8-8-8-10-10-10-10---|
C|--12-12-12-12-7-7-7-7-7-8-8-8-8-10-10-10-10---|


D|----------------------------------------------------|
A|----------------------------------------------------|
F|----------------------------------------------------|
C|--7-7-7-7-7-7-7-7-8-8-8-8-8-8-8-8-7-7-7-7-7-7-7-7---|
G|--3-3-3-3-3-3-3-3-5-5-5-5-5-5-5-5-0-0-0-0-0-0-0-0---|
C|--3-3-3-3-3-3-3-3-5-5-5-5-5-5-5-5-0-0-0-0-0-0-0-0---|


[Breakdown]:


D|---------------------------------------------------------|
A|---------------------------------------------------------|
F|---------------------------------------------------------|
C|--1--1--1--0---------1--1--1-1--0~----------1--1--1--1---|
G|--1--1--1--0---------1--1--1-1--0~----------1--1--1--1---|
C|--1--1--1--0---------1--1--1-1--0~----------1--1--1--1---|


D|--------------------------------------------------------------------------------------------------|
A|--------------------------------------------------------------------------------------------------|
F|--------------------------------------------------------------------------------------------------|
C|--0------0---0-----0------0---0-0------1--1--1---0------0---0-----0------0---0-0------1--1/4--3---|
G|--0--0-0-0---0-0-0-0--0-0-0---0-0--0-0-1--1--1---0--0-0-0---0-0-0-0--0-0-0---0-0--0-0-1--1/4--3---|
C|--0--0-0-0---0-0-0-0--0-0-0---0-0--0-0-1--1--1---0--0-0-0---0-0-0-0--0-0-0---0-0--0-0-1--1/4--3---|
       . .       . .    . .          . .              . .       . .    . .          . .


D|--------------------------------------------------------------------------------------------------|
A|--------------------------------------------------------------------------------------------------|
F|--------------------------------------------------------------------------------------------------|
C|--0------0---0-----0------0---0-0------1--1--1---0------0---0-----0------0------7--8-----10--12---|
G|--0--0-0-0---0-0-0-0--0-0-0---0-0--0-0-1--1--1---0--0-0-0---0-0-0-0--0-0-0------------------------|
C|--0--0-0-0---0-0-0-0--0-0-0---0-0--0-0-1--1--1---0--0-0-0---0-0-0-0--0-0-0---5--------8-----------|
       . .       . .    . .          . .              . .       . .    . .


[Bridge]:


D|--------------------------------------------------------------------------|
A|--------------------------------------------------------------------------|
F|-------------10~--------10~-------------------10~--------10~--------------|
C|--7~---------8~---------7~---------7~---------8~---------7~---------12~---|
G|--7~---------5~---------8~---------7~---------5~---------8~---------8~----|
C|--3~---------5~---------0~---------3~---------5~---------0~---------8~----|


D|---------------------------------------|
A|---------------------------------------|
F|-------------10~--------10~------------|
C|--7~---------8~---------7~---------\---|
G|--7~---------5~---------8~---------\---|
C|--3~---------5~---------0~---------\---|


D|--------------------------------------------------------------------|
A|--------------------------------------------------------------------|
F|--------------------------------------------------------------------|
C|--3-3-3-3-3-3-3-3-3-3-3-3-3-3-3-3-5-5-5-5-5-5-5-5-5-5-5-5-5-5-5-5---|
G|--3-3-3-3-3-3-3-3-3-3-3-3-3-3-3-3-5-5-5-5-5-5-5-5-5-5-5-5-5-5-5-5---|
C|--3-3-3-3-3-3-3-3-3-3-3-3-3-3-3-3-5-5-5-5-5-5-5-5-5-5-5-5-5-5-5-5---|


D|--------------------------------------------------------------------|
A|--------------------------------------------------------------------|
F|--------------------------------------------------------------------|
C|--0-0-0-0-0-0-0-0-0-0-0-0-0-0-0-0-8-8-8-8-8-8-8-8-8-8-8-8-8-8-8-8---|
G|--0-0-0-0-0-0-0-0-0-0-0-0-0-0-0-0-8-8-8-8-8-8-8-8-8-8-8-8-8-8-8-8---|
C|--0-0-0-0-0-0-0-0-0-0-0-0-0-0-0-0-8-8-8-8-8-8-8-8-8-8-8-8-8-8-8-8---|


[Chorus 2]:


D|--------------------------------------------------------------------|
A|--------------------------------------------------------------------|
F|--------------------------------------------------------------------|
C|--3-3-3-3-3-3-3-3-3-3-3-3-3-3-3-3-5-5-5-5-5-5-5-5-5-5-5-5-5-5-5-5---|
G|--3-3-3-3-3-3-3-3-3-3-3-3-3-3-3-3-5-5-5-5-5-5-5-5-5-5-5-5-5-5-5-5---|
C|--3-3-3-3-3-3-3-3-3-3-3-3-3-3-3-3-5-5-5-5-5-5-5-5-5-5-5-5-5-5-5-5---|


D|--------------------------------------------------------------------|
A|--------------------------------------------------------------------|
F|--------------------------------------------------------------------|
C|--0-0-0-0-0-0-0-0-0-0-0-0-0-0-0-0-8-8-8-8-8-8-8-8-8-8-8-8-8-8-8-8---|
G|--0-0-0-0-0-0-0-0-0-0-0-0-0-0-0-0-8-8-8-8-8-8-8-8-8-8-8-8-8-8-8-8---|
C|--0-0-0-0-0-0-0-0-0-0-0-0-0-0-0-0-8-8-8-8-8-8-8-8-8-8-8-8-8-8-8-8---|


[Outro]:


D|-----------------------------------------------------------------------------------|
A|-----------------------------------------------------------------------------------|
F|-----------2------------------0---------------------2------------------0-----------|
C|-----3---------3-----3---3-------3------------3---------3-----3---3-------3--------|
G|--5-----5---------0----1---1--------3/5----5-----5---------0----1---1--------3/5---|
C|-----------------------------------------------------------------------------------|


D|---------------------------------------------------------------------------------|
A|---------------------------------------------------------------------------------|
F|-----------2------------------0---------------------10--------9-------5---5------|
C|-----3---------3-----3---3-------3------------7----------7--------7--------------|
G|--5-----5---------0----1---1--------3/5----8-----8---------8--------8---8---8\---|
C|---------------------------------------------------------------------------------|


D|-----------------------------------------------------------------------------------|
A|-----------------------------------------------------------------------------------|
F|-----------2------------------0---------------------2------------------0-----------|
C|-----3---------3-----3---3-------3------------3---------3-----3---3-------3--------|
G|--5-----5---------0----1---1--------3/5----5-----5---------0----1---1--------3/5---|
C|-----------------------------------------------------------------------------------|


D|-------------------------------------------------------------------------------|
A|-------------------------------------------------------------------------------|
F|-----------2------------------0---------------------10--------9-----------5~---|
C|-----3---------3-----3---3-------3------------7----------7--------7-------7~---|
G|--5-----5---------0----1---1--------3/5----8-----8---------8--------8~---------|
C|-------------------------------------------------------------------------------|







8. We Got This



[Intro]:


D|--------------------------------------------------------------------------------------|
A|------13--------13--------13--------13--------13--------13---------13---------12------|
F|---------12--------12--------12--------12--------12--------12---------12---------12---|
C|--10---------10--------10--------10--------10--------10--------10---------10----------|
G|--------------------------------------------------------------------------------------|
C|--------------------------------------------------------------------------------------|


D|--------------------------------------------------------------------|
A|------13--------13--------13--------12--------13--------13----------|
F|---------12--------12--------12--------12--------12--------12-------|
C|--10---------10--------10--------10--------10--------10--------10---|
G|--------------------------------------------------------------------|
C|--------------------------------------------------------------------|


D|-------------------------------------------------------|
A|-------------------------------------------------------|
F|-------------------------------------------------------|
C|--3--3--3-3--10-10-10-10-10-10-10-10-3-3-3-3-3-3-3-3---|
G|--3--3--3-3--10-10-10-10-10-10-10-10-3-3-3-3-3-3-3-3---|
C|--3--3--3-3--10-10-10-10-10-10-10-10-3-3-3-3-3-3-3-3---|


D|--------------------------------|
A|--------------------------------|
F|--------------------------------|
C|--7-7-7-7-7-7-7-3-3-3-3-3-3-3---|
G|--7-7-7-7-7-7-7-3-3-3-3-3-3-3---|
C|--7-7-7-7-7-7-7-3-3-3-3-3-3-3---|


D|--------------------------------------------|
A|--------------------------------------------|
F|--------------------------------------------|
C|--10-10-10-10-10-10-10-10-3-3-3-3-3-3-3-3---|
G|--10-10-10-10-10-10-10-10-3-3-3-3-3-3-3-3---|
C|--10-10-10-10-10-10-10-10-3-3-3-3-3-3-3-3---|


D|----------------------------------|
A|---------5------------5-6-5-------|
F|-------5----5-------5-------7-5---|
C|---5h7--------7---5---------------|
G|----------------------------------|
C|----------------------------------|


[Verse]:


D|---------------------------------------------------------------------------------------|
A|---------------------------------------------------------------------------------------|
F|--5---5-5--5-5--5-5--5-5-5-5---5---5-5--5-5--5-5--5-5-5-5------------------------------|
C|--5---5-5--5-5--5-5--5-5-5-5---5---5-5--5-5--5-5--5-5-5-5--7--7-7--7-7--7-7--7-7-7-7---|
G|--3---3-3--3-3--3-3--3-3-3-3---3---3-3--3-3--3-3--3-3-3-3--7--7-7--7-7--7-7--7-7-7-7---|
C|-----------------------------------------------------------7--7-7--7-7--7-7--7-7-7-7---|
    .   . .  . .  . .  . . . .   .   . .  . .  . .  . . . .  .  . .  . .  . .  . . . .


D|------------------------------|
A|------------------------------|
F|------------------------------|
C|--3--3-3--3-3--3-3--3-3-3-3---|
G|--3--3-3--3-3--3-3--3-3-3-3---|
C|--3--3-3--3-3--3-3--3-3-3-3---|
    .  . .  . .  . .  . . . .


D|---------------------------------------------------------------------------------------|
A|---------------------------------------------------------------------------------------|
F|--5---5-5--5-5--5-5--5-5-5-5---5---5-5--5-5--5-5--5-5-5-5------------------------------|
C|--5---5-5--5-5--5-5--5-5-5-5---5---5-5--5-5--5-5--5-5-5-5--7--7-7--7-7--7-7--7-7-7-7---|
G|--3---3-3--3-3--3-3--3-3-3-3---3---3-3--3-3--3-3--3-3-3-3--7--7-7--7-7--7-7--7-7-7-7---|
C|-----------------------------------------------------------7--7-7--7-7--7-7--7-7-7-7---|
    .   . .  . .  . .  . . . .   .   . .  . .  . .  . . . .  .  . .  . .  . .  . . . .


D|------------------------------|
A|------------------------------|
F|------------------------------|
C|--3--3-3--3-3--3-3--3-3-3-3---|
G|--3--3-3--3-3--3-3--3-3-3-3---|
C|--3--3-3--3-3--3-3--3-3-3-3---|
    .  . .  . .  . .  . . . .


D|-------------------------------------------------------------------------------------------|
A|-------------------------------------------------------------------------------------------|
F|--5--5--5~-----5--5--5~--------------------------------------------------------------------|
C|--5--5--5~-----5--5--5~-----7--7--7~-----3--3--3~-----7--7--7~-----5--5--5~-----3--3--3~---|
G|--3--3--3~-----3--3--3~-----7--7--7~-----3--3--3~-----7--7--7~-----5--5--5~-----3--3--3~---|
C|----------------------------7--7--7~-----3--3--3~-----7--7--7~-----5--5--5~-----3--3--3~---|


D|--------------|
A|--------------|
F|--------------|
C|--3---3---3---|
G|--3---3---3---|
C|--3---3---3---|


[Chorus]:


D|-------------------------------------------------------------------|
A|-------------------------------------------------------------------|
F|--5-5-5-5-5-5-5-5--------------------------------------------------|
C|--5-5-5-5-5-5-5-5--3-3-3-3-3-3-3-3--7-7-7-7-7-7-7--3-3-3-3-3-3-3---|
G|--3-3-3-3-3-3-3-3--3-3-3-3-3-3-3-3--7-7-7-7-7-7-7--3-3-3-3-3-3-3---|
C|-------------------3-3-3-3-3-3-3-3--7-7-7-7-7-7-7--3-3-3-3-3-3-3---|


D|-------------------------------------------------------|
A|-------------------------------------------------------|
F|--5-5-5-5-5-5-5-5--------------------------------------|
C|--5-5-5-5-5-5-5-5--3-3-3-3-3-3-3-3--7-7-7-7-7-7-7--3---|
G|--3-3-3-3-3-3-3-3--3-3-3-3-3-3-3-3--7-7-7-7-7-7-7--3---|
C|-------------------3-3-3-3-3-3-3-3--7-7-7-7-7-7-7--3---|


[Verse 2]:


D|------------------------------|
A|------------------------------|
F|--5--5-5--5-5--5-5--5-5-5-5---|
C|--x--x-x--x-x--x-x--x-x-x-x---|
G|--3--3-3--3-3--3-3--3-3-3-3---|
C|------------------------------|


D|--------------------------------------------------------------------------------|
A|--------------------------------------------------------------------------------|
F|--------------------------------------------------------------------------------|
C|--10--10-10--10-10--10-10--10-10-10-10---10--10-10--10-10--10-10--10-10-10-10---|
G|--10--10-10--10-10--10-10--10-10-10-10---10--10-10--10-10--10-10--10-10-10-10---|
C|--10--10-10--10-10--10-10--10-10-10-10---10--10-10--10-10--10-10--10-10-10-10---|


D|---------------------------------------------------------|
A|---------------------------------------------------------|
F|---------------------------------------------------------|
C|--7--7-7--7-7--7-7--7-7-7-7--3--3-3--3-3--3-3--3-3-3-3---|
G|--7--7-7--7-7--7-7--7-7-7-7--3--3-3--3-3--3-3--3-3-3-3---|
C|--7--7-7--7-7--7-7--7-7-7-7--3--3-3--3-3--3-3--3-3-3-3---|


D|---------------------------------------------------------------------------------------|
A|---------------------------------------------------------------------------------------|
F|--5---5-5--5-5--5-5--5-5-5-5---5---5-5--5-5--5-5--5-5-5-5------------------------------|
C|--5---5-5--5-5--5-5--5-5-5-5---5---5-5--5-5--5-5--5-5-5-5--7--7-7--7-7--7-7--7-7-7-7---|
G|--3---3-3--3-3--3-3--3-3-3-3---3---3-3--3-3--3-3--3-3-3-3--7--7-7--7-7--7-7--7-7-7-7---|
C|-----------------------------------------------------------7--7-7--7-7--7-7--7-7-7-7---|
    .   . .  . .  . .  . . . .   .   . .  . .  . .  . . . .  .  . .  . .  . .  . . . .


D|------------------------------|
A|------------------------------|
F|------------------------------|
C|--3--3-3--3-3--3-3--3-3-3-3---|
G|--3--3-3--3-3--3-3--3-3-3-3---|
C|--3--3-3--3-3--3-3--3-3-3-3---|
    .  . .  . .  . .  . . . .


D|-----------------------------------------------------------|
A|-----------------------------------------------------------|
F|-----------------------------------------------------------|
C|--7--7--7~-----5--5--5~-----3--3--3~-----3------3------3---|
G|--7--7--7~-----5--5--5~-----3--3--3~-----3------3------3---|
C|--7--7--7~-----5--5--5~-----3--3--3~-----3------3------3---|


[Chorus]:


D|-------------------------------------------------------------------|
A|-------------------------------------------------------------------|
F|--5-5-5-5-5-5-5-5--------------------------------------------------|
C|--5-5-5-5-5-5-5-5--3-3-3-3-3-3-3-3--7-7-7-7-7-7-7--3-3-3-3-3-3-3---|
G|--3-3-3-3-3-3-3-3--3-3-3-3-3-3-3-3--7-7-7-7-7-7-7--3-3-3-3-3-3-3---|
C|-------------------3-3-3-3-3-3-3-3--7-7-7-7-7-7-7--3-3-3-3-3-3-3---|


D|-------------------------------------------------------------------|
A|-------------------------------------------------------------------|
F|--5-5-5-5-5-5-5-5--------------------------------------------------|
C|--5-5-5-5-5-5-5-5--3-3-3-3-3-3-3-3--7-7-7-7-7-7-7--3-3-3-3-3-3-3---|
G|--3-3-3-3-3-3-3-3--3-3-3-3-3-3-3-3--7-7-7-7-7-7-7--3-3-3-3-3-3-3---|
C|-------------------3-3-3-3-3-3-3-3--7-7-7-7-7-7-7--3-3-3-3-3-3-3---|


D|-------------------------------------------------------------------|
A|-------------------------------------------------------------------|
F|--5-5-5-5-5-5-5-5--------------------------------------------------|
C|--5-5-5-5-5-5-5-5--3-3-3-3-3-3-3-3--7-7-7-7-7-7-7--3-3-3-3-3-3-3---|
G|--3-3-3-3-3-3-3-3--3-3-3-3-3-3-3-3--7-7-7-7-7-7-7--3-3-3-3-3-3-3---|
C|-------------------3-3-3-3-3-3-3-3--7-7-7-7-7-7-7--3-3-3-3-3-3-3---|


D|-------------------------------------------------------------------|
A|-------------------------------------------------------------------|
F|--5-5-5-5-5-5-5-5--------------------------------------------------|
C|--5-5-5-5-5-5-5-5--3-3-3-3-3-3-3-3--7-7-7-7-7-7-7--3-3-3-3-3-3-3---|
G|--3-3-3-3-3-3-3-3--3-3-3-3-3-3-3-3--7-7-7-7-7-7-7--3-3-3-3-3-3-3---|
C|-------------------3-3-3-3-3-3-3-3--7-7-7-7-7-7-7--3-3-3-3-3-3-3---|


[Bridge]:


D|-------8~-------8~-------8~-----8-7~---------8~-------8~-------8~-----8-7~---|
A|-----8--------8--------8-------------------8--------8--------8---------------|
F|-----------------------------------------------------------------------------|
C|--10--------9---------------------------10--------9--------------------------|
G|---------------------8--------8----------------------------8--------8--------|
C|-----------------------------------------------------------------------------|


D|-------8~-------8~-------8~-----8-7~---------8~-------8~-------8---|
A|-----8--------8--------8-------------------8--------8--------8-----|
F|-------------------------------------------------------------------|
C|--10--------9---------------------------10--------9----------------|
G|---------------------8--------8----------------------------8-------|
C|-------------------------------------------------------------------|


D|-------------------------------------------------------------------|
A|-------------------------------------------------------------------|
F|--5-5-5-5-5-5-5-5--------------------------------------------------|
C|--5-5-5-5-5-5-5-5--3-3-3-3-3-3-3-3--7-7-7-7-7-7-7--3-3-3-3-3-3-3---|
G|--3-3-3-3-3-3-3-3--3-3-3-3-3-3-3-3--7-7-7-7-7-7-7--3-3-3-3-3-3-3---|
C|-------------------3-3-3-3-3-3-3-3--7-7-7-7-7-7-7--3-3-3-3-3-3-3---|


D|-------------------------------------------------------------------|
A|-------------------------------------------------------------------|
F|--5-5-5-5-5-5-5-5--------------------------------------------------|
C|--5-5-5-5-5-5-5-5--3-3-3-3-3-3-3-3--7-7-7-7-7-7-7--3-3-3-3-3-3-3---|
G|--3-3-3-3-3-3-3-3--3-3-3-3-3-3-3-3--7-7-7-7-7-7-7--3-3-3-3-3-3-3---|
C|-------------------3-3-3-3-3-3-3-3--7-7-7-7-7-7-7--3-3-3-3-3-3-3---|


D|---------------------------------------------------------------------------------------|
A|---------------------------------------------------------------------------------------|
F|--5-5-5-5-5-5-5-5-5-5-5-5-5-5-5-5-5-5-5-5-5-5-5-5-5-5-5-5-5-5-5-5---5------------------|
C|--5-5-5-5-5-5-5-5-5-5-5-5-5-5-5-5-5-5-5-5-5-5-5-5-5-5-5-5-5-5-5-5---5------x--x--x-x---|
G|--3-3-3-3-3-3-3-3-3-3-3-3-3-3-3-3-3-3-3-3-3-3-3-3-3-3-3-3-3-3-3-3---3------x--x--x-x---|
C|---------------------------------------------------------------------------x--x--x-x---|
    . . . . . . . . . . . . . . . . . . . . . . . . . . . . . . . .


[Chorus 2]:


D|---------------------------------|
A|---------------------------------|
F|---------------------------------|
C|--7-7-7-7-7-7-7--3-3-3-3-3-3-3---|
G|--7-7-7-7-7-7-7--3-3-3-3-3-3-3---|
C|--7-7-7-7-7-7-7--3-3-3-3-3-3-3---|


D|-------------------------------------------------------------------|
A|-------------------------------------------------------------------|
F|--5-5-5-5-5-5-5-5--------------------------------------------------|
C|--5-5-5-5-5-5-5-5--3-3-3-3-3-3-3-3--7-7-7-7-7-7-7--3-3-3-3-3-3-3---|
G|--3-3-3-3-3-3-3-3--3-3-3-3-3-3-3-3--7-7-7-7-7-7-7--3-3-3-3-3-3-3---|
C|-------------------3-3-3-3-3-3-3-3--7-7-7-7-7-7-7--3-3-3-3-3-3-3---|


D|-------------------------------------------------------------------|
A|-------------------------------------------------------------------|
F|--5-5-5-5-5-5-5-5--------------------------------------------------|
C|--5-5-5-5-5-5-5-5--3-3-3-3-3-3-3-3--7-7-7-7-7-7-7--3-3-3-3-3-3-3---|
G|--3-3-3-3-3-3-3-3--3-3-3-3-3-3-3-3--7-7-7-7-7-7-7--3-3-3-3-3-3-3---|
C|-------------------3-3-3-3-3-3-3-3--7-7-7-7-7-7-7--3-3-3-3-3-3-3---|


D|-------------------------------------------------------------------|
A|-------------------------------------------------------------------|
F|--5-5-5-5-5-5-5-5--------------------------------------------------|
C|--5-5-5-5-5-5-5-5--3-3-3-3-3-3-3-3--7-7-7-7-7-7-7--3-3-3-3-3-3-3---|
G|--3-3-3-3-3-3-3-3--3-3-3-3-3-3-3-3--7-7-7-7-7-7-7--3-3-3-3-3-3-3---|
C|-------------------3-3-3-3-3-3-3-3--7-7-7-7-7-7-7--3-3-3-3-3-3-3---|


[Outro]:


D|-----------------------------|
A|-----------------------------|
F|------------------------5~---|
C|--7-7-7-7-7-7-7--3------5~---|
G|--7-7-7-7-7-7-7--3------3~---|
C|--7-7-7-7-7-7-7--3-----------|







9. Same About You



[Intro]:


D|------------------------------------------------------------------|
A|--6-6-6-6-6-6-6---6-6-6-6-6-8-6---6-6-6-6-6-6-6---5-5-5-5-5-5-5---|
F|--7-7-7-7-7-7-7---7-7-7-7-7-7-7---7-7-7-7-7-7-7---7-7-7-7-7-7-7---|
C|------------------------------------------------------------------|
G|------------------------------------------------------------------|
C|------------------------------------------------------------------|
    . . . . . . .   . . . . . . .   . . . . . . .   . . . . . .


D|------------------------------------------------------------------|
A|--6-6-6-6-6-6-6---6-6-6-6-6-8-6---6-6-6-6-6-6-6---5-5-5-5-5-5-5---|
F|--7-7-7-7-7-7-7---7-7-7-7-7-7-7---7-7-7-7-7-7-7---7-7-7-7-7-7-7---|
C|------------------------------------------------------------------|
G|------------------------------------------------------------------|
C|------------------------------------------------------------------|
    . . . . . . .   . . . . . . .   . . . . . . .   . . .   . .


[Verse]:


D|------------------------------------------------------------------|
A|--6-6-6-6-6-6-6---6-6-6-6-6-8-6---6-6-6-6-6-6-6---5-5-5-5-5-5-5---|
F|--7-7-7-7-7-7-7---7-7-7-7-7-7-7---7-7-7-7-7-7-7---7-7-7-7-7-7-7---|
C|------------------------------------------------------------------|
G|------------------------------------------------------------------|
C|------------------------------------------------------------------|
    . . . . . . .   . . . . . . .   . . . . . . .   . . . . . .


D|------------------------------------------------------------------|
A|--6-6-6-6-6-6-6---6-6-6-6-6-8-6---6-6-6-6-6-6-6---5-5-5-5-5-5-5---|
F|--7-7-7-7-7-7-7---7-7-7-7-7-7-7---7-7-7-7-7-7-7---7-7-7-7-7-7-7---|
C|------------------------------------------------------------------|
G|------------------------------------------------------------------|
C|------------------------------------------------------------------|
    . . . . . . .   . . . . . . .   . . . . . . .   . . .   . .


D|------------------------------------------------------------------|
A|--6-6-6-6-6-6-6---6-6-6-6-6-8-6---6-6-6-6-6-6-6---5-5-5-5-5-5-5---|
F|--7-7-7-7-7-7-7---7-7-7-7-7-7-7---7-7-7-7-7-7-7---7-7-7-7-7-7-7---|
C|------------------------------------------------------------------|
G|------------------------------------------------------------------|
C|------------------------------------------------------------------|
    . . . . . . .   . . . . . . .   . . . . . . .   . . . . . .


D|------------------------------------------------------------------|
A|--6-6-6-6-6-6-6---6-6-6-6-6-8-6---6-6-6-6-6-6-6---5-5-5-5-5-5-5---|
F|--7-7-7-7-7-7-7---7-7-7-7-7-7-7---7-7-7-7-7-7-7---7-7-7-7-7-7-7---|
C|------------------------------------------------------------------|
G|------------------------------------------------------------------|
C|------------------------------------------------------------------|
    . . . . . . .   . . . . . . .   . . . . . . .   . . .   . .


[Pre-Chorus]:


D|--------5----------------5----------------5----------------5------|
A|----6-----6~---------6-----6~---------6-----6~---------6-----6~---|
F|--7---7------------7---7------------7---7------------7---7--------|
C|------------------------------------------------------------------|
G|------------------------------------------------------------------|
C|------------------------------------------------------------------|


[Chorus]:


D|--------------------------------------------------------------------|
A|--------------------------------------------------------------------|
F|----------------------------------3-3-3-3-3-3-3-3-3-3-3-3-3-3-3-3---|
C|--0-0-0-0-0-0-0-0-0-0-0-0-0-0-0-0-3-3-3-3-3-3-3-3-3-3-3-3-3-3-3-3---|
G|--0-0-0-0-0-0-0-0-0-0-0-0-0-0-0-0-1-1-1-1-1-1-1-1-1-1-1-1-1-1-1-1---|
C|--0-0-0-0-0-0-0-0-0-0-0-0-0-0-0-0-----------------------------------|


D|--------------------------------------------------------------------|
A|--------------------------------------------------------------------|
F|----------------------------------5-5-5-5-5-5-5-5-5-5-5-5-5-5-5-5---|
C|--3-3-3-3-3-3-3-3-3-3-3-3-3-3-3-3-5-5-5-5-5-5-5-5-5-5-5-5-5-5-5-5---|
G|--3-3-3-3-3-3-3-3-3-3-3-3-3-3-3-3-3-3-3-3-3-3-3-3-3-3-3-3-3-3-3-3---|
C|--3-3-3-3-3-3-3-3-3-3-3-3-3-3-3-3-----------------------------------|


D|--------------------------------------------------------------------|
A|--------------------------------------------------------------------|
F|----------------------------------3-3-3-3-3-3-3-3-3-3-3-3-3-3-3-3---|
C|--0-0-0-0-0-0-0-0-0-0-0-0-0-0-0-0-3-3-3-3-3-3-3-3-3-3-3-3-3-3-3-3---|
G|--0-0-0-0-0-0-0-0-0-0-0-0-0-0-0-0-1-1-1-1-1-1-1-1-1-1-1-1-1-1-1-1---|
C|--0-0-0-0-0-0-0-0-0-0-0-0-0-0-0-0-----------------------------------|


D|--------------------------------------------------------------------|
A|--------------------------------------------------------------------|
F|----------------------------------5-5-5-5-5-5-5-5-6-6-6-6-6-6-6-6---|
C|--3-3-3-3-3-3-3-3-3-3-3-3-3-3-3-3-5-5-5-5-5-5-5-5-6-6-6-6-6-6-6-6---|
G|--3-3-3-3-3-3-3-3-3-3-3-3-3-3-3-3-3-3-3-3-3-3-3-3-4-4-4-4-4-4-4-4---|
C|--3-3-3-3-3-3-3-3-3-3-3-3-3-3-3-3-----------------------------------|


[Verse 2]:


D|------------------------------------------------------------------|
A|--6-6-6-6-6-6-6---6-6-6-6-6-8-6---6-6-6-6-6-6-6---5-5-5-5-5-5-5---|
F|--7-7-7-7-7-7-7---7-7-7-7-7-7-7---7-7-7-7-7-7-7---7-7-7-7-7-7-7---|
C|------------------------------------------------------------------|
G|------------------------------------------------------------------|
C|------------------------------------------------------------------|
    . . . . . . .   . . . . . . .   . . . . . . .   . . . . . .


D|------------------------------------------------------------------|
A|--6-6-6-6-6-6-6---6-6-6-6-6-8-6---6-6-6-6-6-6-6---5-5-5-5-5-5-5---|
F|--7-7-7-7-7-7-7---7-7-7-7-7-7-7---7-7-7-7-7-7-7---7-7-7-7-7-7-7---|
C|------------------------------------------------------------------|
G|------------------------------------------------------------------|
C|------------------------------------------------------------------|


D|------------------------------------------------------------------|
A|--6-6-6-6-6-6-6---6-6-6-6-6-8-6---6-6-6-6-6-6-6---5-5-5-5-5-5-5---|
F|--7-7-7-7-7-7-7---7-7-7-7-7-7-7---7-7-7-7-7-7-7---7-7-7-7-7-7-7---|
C|------------------------------------------------------------------|
G|------------------------------------------------------------------|
C|------------------------------------------------------------------|


[Pre-Chorus]:


D|--------5----------------5----------------5----------------5------|
A|----6-----6~---------6-----6~---------6-----6~---------6-----6~---|
F|--7---7------------7---7------------7---7------------7---7--------|
C|------------------------------------------------------------------|
G|------------------------------------------------------------------|
C|------------------------------------------------------------------|


[Chorus]:


D|--------------------------------------------------------------------|
A|--------------------------------------------------------------------|
F|----------------------------------3-3-3-3-3-3-3-3-3-3-3-3-3-3-3-3---|
C|--0-0-0-0-0-0-0-0-0-0-0-0-0-0-0-0-3-3-3-3-3-3-3-3-3-3-3-3-3-3-3-3---|
G|--0-0-0-0-0-0-0-0-0-0-0-0-0-0-0-0-1-1-1-1-1-1-1-1-1-1-1-1-1-1-1-1---|
C|--0-0-0-0-0-0-0-0-0-0-0-0-0-0-0-0-----------------------------------|


D|--------------------------------------------------------------------|
A|--------------------------------------------------------------------|
F|----------------------------------5-5-5-5-5-5-5-5-5-5-5-5-5-5-5-5---|
C|--3-3-3-3-3-3-3-3-3-3-3-3-3-3-3-3-5-5-5-5-5-5-5-5-5-5-5-5-5-5-5-5---|
G|--3-3-3-3-3-3-3-3-3-3-3-3-3-3-3-3-3-3-3-3-3-3-3-3-3-3-3-3-3-3-3-3---|
C|--3-3-3-3-3-3-3-3-3-3-3-3-3-3-3-3-----------------------------------|


D|--------------------------------------------------------------------|
A|--------------------------------------------------------------------|
F|----------------------------------3-3-3-3-3-3-3-3-3-3-3-3-3-3-3-3---|
C|--0-0-0-0-0-0-0-0-0-0-0-0-0-0-0-0-3-3-3-3-3-3-3-3-3-3-3-3-3-3-3-3---|
G|--0-0-0-0-0-0-0-0-0-0-0-0-0-0-0-0-1-1-1-1-1-1-1-1-1-1-1-1-1-1-1-1---|
C|--0-0-0-0-0-0-0-0-0-0-0-0-0-0-0-0-----------------------------------|


D|--------------------------------------------------------------------|
A|--------------------------------------------------------------------|
F|----------------------------------5-5-5-5-5-5-5-5-6-6-6-6-6-6-6-6---|
C|--3-3-3-3-3-3-3-3-3-3-3-3-3-3-3-3-5-5-5-5-5-5-5-5-6-6-6-6-6-6-6-6---|
G|--3-3-3-3-3-3-3-3-3-3-3-3-3-3-3-3-3-3-3-3-3-3-3-3-4-4-4-4-4-4-4-4---|
C|--3-3-3-3-3-3-3-3-3-3-3-3-3-3-3-3-----------------------------------|


[Bridge]:


D|------------------|
A|------------------|
F|------------------|
C|--0--0--0--0--0---|
G|--0--0--0--0--0---|
C|--0--0--0--0--0---|


D|--------------------------------------------------------------------|
A|--------------------------------------------------------------------|
F|--------------------------------------------------------------------|
C|--0-0-0-0-0-0-0-0-0-0-0-0-0-0-0-0-8-8-8-8-8-8-8-8-8-8-8-8-8-8-8-8---|
G|--0-0-0-0-0-0-0-0-0-0-0-0-0-0-0-0-8-8-8-8-8-8-8-8-8-8-8-8-8-8-8-8---|
C|--0-0-0-0-0-0-0-0-0-0-0-0-0-0-0-0-8-8-8-8-8-8-8-8-8-8-8-8-8-8-8-8---|


D|------------------------------------------------------------------------------------|
A|------------------------------------------------------------------------------------|
F|------------------------------------------------------------------------------------|
C|--3-3-3-3-3-3-3-3-3-3-3-3-3-3-3-3-10-10-10-10-10-10-10-10-10-10-10-10-10-10-10-10---|
G|--3-3-3-3-3-3-3-3-3-3-3-3-3-3-3-3-10-10-10-10-10-10-10-10-10-10-10-10-10-10-10-10---|
C|--3-3-3-3-3-3-3-3-3-3-3-3-3-3-3-3-10-10-10-10-10-10-10-10-10-10-10-10-10-10-10-10---|


D|--------------------------------------------------------------------|
A|--------------------------------------------------------------------|
F|----------------------------------3-3-3-3-3-3-3-3-3-3-3-3-3-3-3-3---|
C|--0-0-0-0-0-0-0-0-0-0-0-0-0-0-0-0-3-3-3-3-3-3-3-3-3-3-3-3-3-3-3-3---|
G|--0-0-0-0-0-0-0-0-0-0-0-0-0-0-0-0-1-1-1-1-1-1-1-1-1-1-1-1-1-1-1-1---|
C|--0-0-0-0-0-0-0-0-0-0-0-0-0-0-0-0-----------------------------------|


D|------------------------------------------------------------------------------------|
A|------------------------------------------------------------------------------------|
F|------------------------------------------------------------------------------------|
C|--3-3-3-3-3-3-3-3-3-3-3-3-3-3-3-3-10-10-10-10-10-10-10-10-11-11-11-11-11-11-11-11---|
G|--3-3-3-3-3-3-3-3-3-3-3-3-3-3-3-3-10-10-10-10-10-10-10-10-11-11-11-11-11-11-11-11---|
C|--3-3-3-3-3-3-3-3-3-3-3-3-3-3-3-3-10-10-10-10-10-10-10-10-11-11-11-11-11-11-11-11---|


D|---------------------------------------------------------------------------|
A|---------------------------------------------------------------------------|
F|---------------------------------------------------------------------------|
C|--0--0--0--0--0--0--0-0-0-0-0-0--0--0--0--0--0--0--11-11-11-11-11-11-12\---|
G|--0--0--0--0--0--0--0-0-0-0-0-0--0--0--0--0--0--0--11-11-11-11-11-11-12\---|
C|--0--0--0--0--0--0--0-0-0-0-0-0--0--0--0--0--0--0--11-11-11-11-11-11-12\---|
                      . . . . . .


D|-------------------------------------------------------|
A|-------------------------------------------------------|
F|-------------------------------------------------------|
C|--0--0--0--0--0--0-0-0-0-0-0--0--0--0--0--0--0--0--0---|
G|--0--0--0--0--0--0-0-0-0-0-0--0--0--0--0--0--0--0--0---|
C|--0--0--0--0--0--0-0-0-0-0-0--0--0--0--0--0--0--0--0---|
                   . . . . . .


D|------------------------------------------|
A|------------------------------------------|
F|--10-10-10-10-10-10-10---9-9-9-9-9-9-9\---|
C|--x--x--x--x--x--x--x----x-x-x-x-x-x-x----|
G|--8--8--8--8--8--8--8----7-7-7-7-7-7-7\---|
C|------------------------------------------|


[Chorus]:


D|--------------------------------------------------------------------|
A|--------------------------------------------------------------------|
F|----------------------------------3-3-3-3-3-3-3-3-3-3-3-3-3-3-3-3---|
C|--0-0-0-0-0-0-0-0-0-0-0-0-0-0-0-0-3-3-3-3-3-3-3-3-3-3-3-3-3-3-3-3---|
G|--0-0-0-0-0-0-0-0-0-0-0-0-0-0-0-0-1-1-1-1-1-1-1-1-1-1-1-1-1-1-1-1---|
C|--0-0-0-0-0-0-0-0-0-0-0-0-0-0-0-0-----------------------------------|


D|--------------------------------------------------------------------|
A|--------------------------------------------------------------------|
F|----------------------------------5-5-5-5-5-5-5-5-5-5-5-5-5-5-5-5---|
C|--3-3-3-3-3-3-3-3-3-3-3-3-3-3-3-3-5-5-5-5-5-5-5-5-5-5-5-5-5-5-5-5---|
G|--3-3-3-3-3-3-3-3-3-3-3-3-3-3-3-3-3-3-3-3-3-3-3-3-3-3-3-3-3-3-3-3---|
C|--3-3-3-3-3-3-3-3-3-3-3-3-3-3-3-3-----------------------------------|


D|--------------------------------------------------------------------|
A|--------------------------------------------------------------------|
F|----------------------------------3-3-3-3-3-3-3-3-3-3-3-3-3-3-3-3---|
C|--0-0-0-0-0-0-0-0-0-0-0-0-0-0-0-0-3-3-3-3-3-3-3-3-3-3-3-3-3-3-3-3---|
G|--0-0-0-0-0-0-0-0-0-0-0-0-0-0-0-0-1-1-1-1-1-1-1-1-1-1-1-1-1-1-1-1---|
C|--0-0-0-0-0-0-0-0-0-0-0-0-0-0-0-0-----------------------------------|


D|--------------------------------------------------------------------|
A|--------------------------------------------------------------------|
F|----------------------------------5-5-5-5-5-5-5-5-6-6-6-6-6-6-6-6---|
C|--3-3-3-3-3-3-3-3-3-3-3-3-3-3-3-3-5-5-5-5-5-5-5-5-6-6-6-6-6-6-6-6---|
G|--3-3-3-3-3-3-3-3-3-3-3-3-3-3-3-3-3-3-3-3-3-3-3-3-4-4-4-4-4-4-4-4---|
C|--3-3-3-3-3-3-3-3-3-3-3-3-3-3-3-3-----------------------------------|


[Outro]:


D|---------------------------------------------------------------------------|
A|---------------------------------------------------------------------------|
F|---------------------------------------------------------------------------|
C|--0--0--0--0--0--0--0-0-0-0-0-0--0--0--0--0--0--0--11-11-11-11-11-11-12\---|
G|--0--0--0--0--0--0--0-0-0-0-0-0--0--0--0--0--0--0--11-11-11-11-11-11-12\---|
C|--0--0--0--0--0--0--0-0-0-0-0-0--0--0--0--0--0--0--11-11-11-11-11-11-12\---|
                      . . . . . .







10. Turn Off The Radio



[Intro]:


C |------------------------------------------------------------------------------------|
G |------------------------------------------------------------------------------------|
D#|--14--14-14-14-14-14-14--12--14-14-14-14-14-14-14--14--14--14-14-14--17--17-17-17---|
A#|------------------------------------------------------------------------------------|
F |------------------------------------------------------------------------------------|
A#|------------------------------------------------------------------------------------|


[Verse]:


C |-----------------------------------------------------------------|
G |-----------------------------------------------------------------|
D#|------------------------------------7--7--7-7-7-7--7-7-7-7-------|
A#|--7--7-7-7-7-7-7--3--3-3-3-3-3-3-3--7--7--7-7-7-7--7-7-7-7-5-5---|
F |--7--7-7-7-7-7-7--3--3-3-3-3-3-3-3--5--5--5-5-5-5--5-5-5-5-5-5---|
A#|--7--7-7-7-7-7-7--3--3-3-3-3-3-3-3-------------------------5-5---|


C |-----------------------------------------------------------------|
G |-----------------------------------------------------------------|
D#|------------------------------------7--7--7-7-7-7--7-7-7-7-------|
A#|--7--7-7-7-7-7-7--3--3-3-3-3-3-3-3--7--7--7-7-7-7--7-7-7-7-5-5---|
F |--7--7-7-7-7-7-7--3--3-3-3-3-3-3-3--5--5--5-5-5-5--5-5-5-5-5-5---|
A#|--7--7-7-7-7-7-7--3--3-3-3-3-3-3-3-------------------------5-5---|


C |------------------------------------------------------------------------------------|
G |------------------------------------------------------------------------------------|
D#|------------------------------------------------------------------------------------|
A#|----------------7\------------------------------------------------------------------|
F |--7-7--7-7----7-7\--3-3--3-3-3-3-3-3-3-3--0-0--0-0---0--0-0--0--0-0--0-0-0--0-0-0---|
A#|--7-7--7-7----7-7\--3-3--3-3-3-3-3-3-3-3--0-0--0-0---0--0-0--0--0-0--0-0-0--0-0-0---|
     . .  . .    .     . .  . . . . . . . .  . .  . .   .  . .  .  . .  . . .  . . .


C |-----------------------------------------------------------------------------------|
G |-----------------------------------------------------------------------------------|
D#|-----------------------------------------------------------------------------------|
A#|----------------7\-----------------------------------------------------------------|
F |--7-7--7-7----7-7\--3-3--3-3-3-3-3-3-3-3--0-0--0-0---0--0-0--0--0-0--0-0-0-0-0-0---|
A#|--7-7--7-7----7-7\--3-3--3-3-3-3-3-3-3-3--0-0--0-0---0--0-0--0--0-0--0-0-0-0-0-0---|
     . .  . .    .     . .  . . . . . . . .  . .  . .   .  . .  .  . .  . . . . . .


C |------------------------------------------------------------------------------------|
G |------------------------------------------------------------------------------------|
D#|------------------------------------------------------------------------------------|
A#|----------------7\------------------------------------------------------------------|
F |--7-7--7-7----7-7\--3-3--3-3-3-3-3-3-3-3--0-0--0-0---0--0-0--0--0-0--0-0-0--0-0-0---|
A#|--7-7--7-7----7-7\--3-3--3-3-3-3-3-3-3-3--0-0--0-0---0--0-0--0--0-0--0-0-0--0-0-0---|
     . .  . .    .     . .  . . . . . . . .  . .  . .   .  . .  .  . .  . . .  . . .


C |------------------------------------------------------------------------------------|
G |------------------------------------------------------------------------------------|
D#|------------------------------------------------------------------------------------|
A#|----------------7\------------------------------------------------------------------|
F |--7-7--7-7----7-7\--3-3--3-3-3-3-3-3-3-3--0-0--0-0---0--0-0--0--0-0--0-0-0--0-0-0---|
A#|--7-7--7-7----7-7\--3-3--3-3-3-3-3-3-3-3--0-0--0-0---0--0-0--0--0-0--0-0-0--0-0-0---|
     . .  . .    .     . .  . . . . . . . .  . .  . .   .  . .  .  . .  . . .  . . .


[Pre-Chorus]:


C |-----12-------12--------12-----12-------12-------12---|
G |--10----10-10----10-10--------------------------------|
D#|----------------------------10----10-10----10-10------|
A#|------------------------------------------------------|
F |------------------------------------------------------|
A#|------------------------------------------------------|


C |-----12-------12-------12----12-------12-------|
G |-----------------------------------------------|
D#|-----------------------------------------------|
A#|--12----12-12----12-12----12----12-12----12\---|
F |-----------------------------------------------|
A#|-----------------------------------------------|


[Chorus]:


C |-----------------------------------------------------------------|
G |-----------------------------------------------------------------|
D#|----------------------------------7-7-7-7-7-7-7-7--7-7-7---------|
A#|--7-7-7-7-7-7-7-7-3-3-3-3-3-3-3-3-7-7-7-7-7-7-7-7--7-7-7-5-5-5---|
F |--7-7-7-7-7-7-7-7-3-3-3-3-3-3-3-3-5-5-5-5-5-5-5-5--5-5-5-5-5-5---|
A#|--7-7-7-7-7-7-7-7-3-3-3-3-3-3-3-3------------------------5-5-5---|


C |-----------------------------------------------------------------|
G |-----------------------------------------------------------------|
D#|----------------------------------7-7-7-7-7-7-7-7--7-7-7---------|
A#|--7-7-7-7-7-7-7-7-3-3-3-3-3-3-3-3-7-7-7-7-7-7-7-7--7-7-7-5-5-5---|
F |--7-7-7-7-7-7-7-7-3-3-3-3-3-3-3-3-5-5-5-5-5-5-5-5--5-5-5-5-5-5---|
A#|--7-7-7-7-7-7-7-7-3-3-3-3-3-3-3-3------------------------5-5-5---|


C |-----------------------------------------------------------------------------|
G |-----------------------------------------------------------------------------|
D#|-----------------------------------------------------------------------------|
A#|--3-3-3-3-3-3-3-3-5-5-5-5-5-5-5-5-7-7-7-7-7-7-7-7-7-7-7-7-7-5-5-5-3~----5~---|
F |--3-3-3-3-3-3-3-3-5-5-5-5-5-5-5-5-7-7-7-7-7-7-7-7-7-7-7-7-7-5-5-5-3~----5~---|
A#|--3-3-3-3-3-3-3-3-5-5-5-5-5-5-5-5-7-7-7-7-7-7-7-7-7-7-7-7-7-5-5-5-3~----5~---|


[Verse]:


C |-----------------------------------------------------------------|
G |-----------------------------------------------------------------|
D#|------------------------------------7--7--7-7-7-7--7-7-7-7-------|
A#|--7--7-7-7-7-7-7--3--3-3-3-3-3-3-3--7--7--7-7-7-7--7-7-7-7-5-5---|
F |--7--7-7-7-7-7-7--3--3-3-3-3-3-3-3--5--5--5-5-5-5--5-5-5-5-5-5---|
A#|--7--7-7-7-7-7-7--3--3-3-3-3-3-3-3-------------------------5-5---|


C |------------------------------------------------------------------------------------|
G |------------------------------------------------------------------------------------|
D#|------------------------------------------------------------------------------------|
A#|----------------7\------------------------------------------------------------------|
F |--7-7--7-7----7-7\--3-3--3-3-3-3-3-3-3-3--0-0--0-0---0--0-0--0--0-0--0-0-0--0-0-0---|
A#|--7-7--7-7----7-7\--3-3--3-3-3-3-3-3-3-3--0-0--0-0---0--0-0--0--0-0--0-0-0--0-0-0---|
     . .  . .    .     . .  . . . . . . . .  . .  . .   .  . .  .  . .  . . .  . . .


C |------------------------------------------------------------------------------------|
G |------------------------------------------------------------------------------------|
D#|------------------------------------------------------------------------------------|
A#|----------------7\------------------------------------------------------------------|
F |--7-7--7-7----7-7\--3-3--3-3-3-3-3-3-3-3--0-0--0-0---0--0-0--0--0-0--0-0-0--0-0-0---|
A#|--7-7--7-7----7-7\--3-3--3-3-3-3-3-3-3-3--0-0--0-0---0--0-0--0--0-0--0-0-0--0-0-0---|
     . .  . .    .     . .  . . . . . . . .  . .  . .   .  . .  .  . .  . . .  . . .


C |-----------------------------------------------------------------------|
G |-----------------------------------------------------------------------|
D#|-----------------------------------------------------------------------|
A#|--7---7---7-7-7-7---3---3---3-3-3-3--0-0-0-0-0-0-0-0-0-0-0-0-0-0-0-0---|
F |--7---7---7-7-7-7---3---3---3-3-3-3--0-0-0-0-0-0-0-0-0-0-0-0-0-0-0-0---|
A#|--7---7---7-7-7-7---3---3---3-3-3-3--0-0-0-0-0-0-0-0-0-0-0-0-0-0-0-0---|


C |-----------------------------------------------------------------------|
G |-----------------------------------------------------------------------|
D#|-----------------------------------------------------------------------|
A#|--7---7---7-7-7-7---3---3---3-3-3-3--0-0-0-0-0-0-0-0-0-0-0-0-0-0-0-0---|
F |--7---7---7-7-7-7---3---3---3-3-3-3--0-0-0-0-0-0-0-0-0-0-0-0-0-0-0-0---|
A#|--7---7---7-7-7-7---3---3---3-3-3-3--0-0-0-0-0-0-0-0-0-0-0-0-0-0-0-0---|


[Pre-Chorus]:


C |-----12-------12--------12-----12-------12-------12---|
G |--10----10-10----10-10--------------------------------|
D#|----------------------------10----10-10----10-10------|
A#|------------------------------------------------------|
F |------------------------------------------------------|
A#|------------------------------------------------------|


C |-----12-------12-------12----12-------12-------|
G |-----------------------------------------------|
D#|-----------------------------------------------|
A#|--12----12-12----12-12----12----12-12----12\---|
F |-----------------------------------------------|
A#|-----------------------------------------------|


[Chorus 2]:


C |-----------------------------------------------------------------|
G |-----------------------------------------------------------------|
D#|----------------------------------7-7-7-7-7-7-7-7--7-7-7---------|
A#|--7-7-7-7-7-7-7-7-3-3-3-3-3-3-3-3-7-7-7-7-7-7-7-7--7-7-7-5-5-5---|
F |--7-7-7-7-7-7-7-7-3-3-3-3-3-3-3-3-5-5-5-5-5-5-5-5--5-5-5-5-5-5---|
A#|--7-7-7-7-7-7-7-7-3-3-3-3-3-3-3-3------------------------5-5-5---|


C |-----------------------------------------------------------------|
G |-----------------------------------------------------------------|
D#|----------------------------------7-7-7-7-7-7-7-7--7-7-7---------|
A#|--7-7-7-7-7-7-7-7-3-3-3-3-3-3-3-3-7-7-7-7-7-7-7-7--7-7-7-5-5-5---|
F |--7-7-7-7-7-7-7-7-3-3-3-3-3-3-3-3-5-5-5-5-5-5-5-5--5-5-5-5-5-5---|
A#|--7-7-7-7-7-7-7-7-3-3-3-3-3-3-3-3------------------------5-5-5---|


C |-----------------------------------------------------------------------------|
G |-----------------------------------------------------------------------------|
D#|--------------------------------------------------5-5-5-5-5-5-5-5------------|
A#|--3-3-3-3-3-3-3-3-5-5-5-5-5-5-5-5-7-7-7-7-7-7-7-7-5-5-5-5-5-5-5-5-3~----5~---|
F |--3-3-3-3-3-3-3-3-5-5-5-5-5-5-5-5-7-7-7-7-7-7-7-7-3-3-3-3-3-3-3-3-3~----5~---|
A#|--3-3-3-3-3-3-3-3-5-5-5-5-5-5-5-5-7-7-7-7-7-7-7-7-----------------3~----5~---|


[Bridge]:


C |--------------------------------------------------------------|
G |--------------------------------------------------------------|
D#|--------------------------------------------------------------|
A#|--3--3-3-3-3-3---3--3-3-3-3-3---7--7-7-7-7-7---5--5-5-5-5-5---|
F |--3--3-3-3-3-3---3--3-3-3-3-3---7--7-7-7-7-7---5--5-5-5-5-5---|
A#|--3--3-3-3-3-3---3--3-3-3-3-3---7--7-7-7-7-7---5--5-5-5-5-5---|


C |--------------------------------------------------------------|
G |--------------------------------------------------------------|
D#|--------------------------------5--5-5-5-5-5---7--7-7-7-7-7---|
A#|--3--3-3-3-3-3---3--3-3-3-3-3---5--5-5-5-5-5---7--7-7-7-7-7---|
F |--3--3-3-3-3-3---3--3-3-3-3-3---3--3-3-3-3-3---5--5-5-5-5-5---|
A#|--3--3-3-3-3-3---3--3-3-3-3-3---------------------------------|


C |--------------------------------------------------------------|
G |--------------------------------------------------------------|
D#|--------------------------------------------------------------|
A#|--3--3-3-3-3-3---3--3-3-3-3-3---7--7-7-7-7-7---5--5-5-5-5-5---|
F |--3--3-3-3-3-3---3--3-3-3-3-3---7--7-7-7-7-7---5--5-5-5-5-5---|
A#|--3--3-3-3-3-3---3--3-3-3-3-3---7--7-7-7-7-7---5--5-5-5-5-5---|


C |--------------------------------------------------------------|
G |--------------------------------------------------------------|
D#|--------------------------------5--5-5-5-5-5---7--7-7-7-7-7---|
A#|--3--3-3-3-3-3---3--3-3-3-3-3---5--5-5-5-5-5---7--7-7-7-7-7---|
F |--3--3-3-3-3-3---3--3-3-3-3-3---3--3-3-3-3-3---5--5-5-5-5-5---|
A#|--3--3-3-3-3-3---3--3-3-3-3-3---------------------------------|


C |--------------------------------------------------------------|
G |--------------------------------------------------------------|
D#|--------------------------------------------------------------|
A#|--3--3-3-3-3-3---3--3-3-3-3-3---7--7-7-7-7-7---5--5-5-5-5-5---|
F |--3--3-3-3-3-3---3--3-3-3-3-3---7--7-7-7-7-7---5--5-5-5-5-5---|
A#|--3--3-3-3-3-3---3--3-3-3-3-3---7--7-7-7-7-7---5--5-5-5-5-5---|


C |--------------------------------------------------------------|
G |--------------------------------------------------------------|
D#|--------------------------------5--5-5-5-5-5---7--7-7-7-7-7---|
A#|--3--3-3-3-3-3---3--3-3-3-3-3---5--5-5-5-5-5---7--7-7-7-7-7---|
F |--3--3-3-3-3-3---3--3-3-3-3-3---3--3-3-3-3-3---5--5-5-5-5-5---|
A#|--3--3-3-3-3-3---3--3-3-3-3-3---------------------------------|


[Pre-Chorus 2]:


C |------------------------------------------------------------------------------------|
G |------------------------------------------------------------------------------------|
D#|--14--14-14-14-14-14-14--12--14-14-14-14-14-14-14--14--14--14-14-14--17--17-17-17---|
A#|------------------------------------------------------------------------------------|
F |------------------------------------------------------------------------------------|
A#|------------------------------------------------------------------------------------|


[Chorus 2]:


C |-----------------------------------------------------------------|
G |-----------------------------------------------------------------|
D#|----------------------------------7-7-7-7-7-7-7-7--7-7-7---------|
A#|--7-7-7-7-7-7-7-7-3-3-3-3-3-3-3-3-7-7-7-7-7-7-7-7--7-7-7-5-5-5---|
F |--7-7-7-7-7-7-7-7-3-3-3-3-3-3-3-3-5-5-5-5-5-5-5-5--5-5-5-5-5-5---|
A#|--7-7-7-7-7-7-7-7-3-3-3-3-3-3-3-3------------------------5-5-5---|


C |-----------------------------------------------------------------|
G |-----------------------------------------------------------------|
D#|----------------------------------7-7-7-7-7-7-7-7--7-7-7---------|
A#|--7-7-7-7-7-7-7-7-3-3-3-3-3-3-3-3-7-7-7-7-7-7-7-7--7-7-7-5-5-5---|
F |--7-7-7-7-7-7-7-7-3-3-3-3-3-3-3-3-5-5-5-5-5-5-5-5--5-5-5-5-5-5---|
A#|--7-7-7-7-7-7-7-7-3-3-3-3-3-3-3-3------------------------5-5-5---|


C |--------------------------------------------------------------------|
G |--------------------------------------------------------------------|
D#|--------------------------------------------------5-5-5-5-5-5-5-5---|
A#|--3-3-3-3-3-3-3-3-5-5-5-5-5-5-5-5-7-7-7-7-7-7-7-7-5-5-5-5-5-5-5-5---|
F |--3-3-3-3-3-3-3-3-5-5-5-5-5-5-5-5-7-7-7-7-7-7-7-7-3-3-3-3-3-3-3-3---|
A#|--3-3-3-3-3-3-3-3-5-5-5-5-5-5-5-5-7-7-7-7-7-7-7-7-------------------|


C |---------------------------|
G |---------------------------|
D#|---------------------------|
A#|--3-3-3-3-3-3-3-5~----7~---|
F |--3-3-3-3-3-3-3-5~----7~---|
A#|--3-3-3-3-3-3-3-5~----7~---|







11. Forgive and Forget



[Intro]:


C#|-------------------------------------------------------------------------------------|
G#|-------------------------------------------------------------------------------------|
E |-------------------------------------------------------------------------------------|
B |----7---7---7---7---7---7---7---7-----10----10----10----10----10----10----10----10---|
F#|--5---5---5---5---5---5---5---5----10----10----10----10----10----10----10----10------|
B |-------------------------------------------------------------------------------------|
     . . . . . . . . . . . . . . . .  .  .  .  .  .  .  .  .  .  .  .  .  .  .  .  .


C#|---------------------------------------------------------------------|
G#|---------------------------------------------------------------------|
E |---------------------------------------------------------------------|
B |----5---5---5---5---5---5---5---5----7---7---7---7---7---7---7---7---|
F#|--3---3---3---3---3---3---3---3----8---8---8---8---8---8---8---8-----|
B |---------------------------------------------------------------------|
     . . . . . . . . . . . . . . . .  . . . . . . . .


[Verse]:


C#|-------------------------------------------------------------------------------------|
G#|-------------------------------------------------------------------------------------|
E |-------------------------------------------------------------------------------------|
B |----7---7---7---7---7---7---7---7-----10----10----10----10----10----10----10----10---|
F#|--5---5---5---5---5---5---5---5----10----10----10----10----10----10----10----10------|
B |-------------------------------------------------------------------------------------|


C#|---------------------------------------------------------------------|
G#|---------------------------------------------------------------------|
E |---------------------------------------------------------------------|
B |----5---5---5---5---5---5---5---5----7---7---7---7---7---7---7---7---|
F#|--3---3---3---3---3---3---3---3----8---8---8---8---8---8---8---8-----|
B |---------------------------------------------------------------------|


C#|-------------------------------------------------------------------------------------|
G#|-------------------------------------------------------------------------------------|
E |-------------------------------------------------------------------------------------|
B |----7---7---7---7---7---7---7---7-----10----10----10----10----10----10----10----10---|
F#|--5---5---5---5---5---5---5---5----10----10----10----10----10----10----10----10------|
B |-------------------------------------------------------------------------------------|


C#|---------------------------------------------------------------------|
G#|---------------------------------------------------------------------|
E |---------------------------------------------------------------------|
B |----5---5---5---5---5---5---5---5----7---7---7---7---7---7---7---7---|
F#|--3---3---3---3---3---3---3---3----8---8---8---8---8---8---8---8-----|
B |---------------------------------------------------------------------|


C#|-------------------------------------------------------------------------------------|
G#|-------------------------------------------------------------------------------------|
E |-------------------------------------------------------------------------------------|
B |----7---7---7---7---7---7---7---7-----10----10----10----10----10----10----10----10---|
F#|--5---5---5---5---5---5---5---5----10----10----10----10----10----10----10----10------|
B |-------------------------------------------------------------------------------------|


C#|---------------------------------------------------------------------|
G#|---------------------------------------------------------------------|
E |---------------------------------------------------------------------|
B |----5---5---5---5---5---5---5---5----7---7---7---7---7---7---7---7---|
F#|--3---3---3---3---3---3---3---3----8---8---8---8---8---8---8---8-----|
B |---------------------------------------------------------------------|


[Chorus]:


C#|--------------------------------------------------------------------------------------------------|
G#|--------------------------------------------------------------------------------------------------|
E |--------------------------------------------------------------------------------------------------|
B |--8---8--8--8---8--8--8---8--8--10---10--10--12---12--12--12---12--12--10---10--10--10---10--10---|
F#|--8---8--8--8---8--8--8---8--8--10---10--10--12---12--12--12---12--12--10---10--10--10---10--10---|
B |--8---8--8--8---8--8--8---8--8--10---10--10--12---12--12--12---12--12--10---10--10--10---10--10---|


C#|--------------------------------------------------------------------------------------------------|
G#|--------------------------------------------------------------------------------------------------|
E |--------------------------------------------------------------------------------------------------|
B |--8---8--8--8---8--8--8---8--8--10---10--10--12---12--12--12---12--12--10---10--10--10---10--10---|
F#|--8---8--8--8---8--8--8---8--8--10---10--10--12---12--12--12---12--12--10---10--10--10---10--10---|
B |--8---8--8--8---8--8--8---8--8--10---10--10--12---12--12--12---12--12--10---10--10--10---10--10---|


C#|--------------------------------------------------------------------------------------------------|
G#|--------------------------------------------------------------------------------------------------|
E |--------------------------------------------------------------------------------------------------|
B |--8---8--8--8---8--8--8---8--8--10---10--10--12---12--12--12---12--12--10---10--10--10---10--10---|
F#|--8---8--8--8---8--8--8---8--8--10---10--10--12---12--12--12---12--12--10---10--10--10---10--10---|
B |--8---8--8--8---8--8--8---8--8--10---10--10--12---12--12--12---12--12--10---10--10--10---10--10---|


C#|--------------------------------------------------------------------------------------------------|
G#|--------------------------------------------------------------------------------------------------|
E |--------------------------------------------------------------------------------------------------|
B |--8---8--8--8---8--8--8---8--8--10---10--10--12---12--12--12---12--12--10---10--10--10---10--10---|
F#|--8---8--8--8---8--8--8---8--8--10---10--10--12---12--12--12---12--12--10---10--10--10---10--10---|
B |--8---8--8--8---8--8--8---8--8--10---10--10--12---12--12--12---12--12--10---10--10--10---10--10---|


[Verse]:


C#|-------------------------------------------------------------------------------------|
G#|-------------------------------------------------------------------------------------|
E |-------------------------------------------------------------------------------------|
B |----7---7---7---7---7---7---7---7-----10----10----10----10----10----10----10----10---|
F#|--5---5---5---5---5---5---5---5----10----10----10----10----10----10----10----10------|
B |-------------------------------------------------------------------------------------|


C#|---------------------------------------------------------------------|
G#|---------------------------------------------------------------------|
E |---------------------------------------------------------------------|
B |----5---5---5---5---5---5---5---5----7---7---7---7---7---7---7---7---|
F#|--3---3---3---3---3---3---3---3----8---8---8---8---8---8---8---8-----|
B |---------------------------------------------------------------------|


C#|-------------------------------------------------------------------------------------|
G#|-------------------------------------------------------------------------------------|
E |-------------------------------------------------------------------------------------|
B |----7---7---7---7---7---7---7---7-----10----10----10----10----10----10----10----10---|
F#|--5---5---5---5---5---5---5---5----10----10----10----10----10----10----10----10------|
B |-------------------------------------------------------------------------------------|


C#|---------------------------------------------------------------------|
G#|---------------------------------------------------------------------|
E |---------------------------------------------------------------------|
B |----5---5---5---5---5---5---5---5----7---7---7---7---7---7---7---7---|
F#|--3---3---3---3---3---3---3---3----8---8---8---8---8---8---8---8-----|
B |---------------------------------------------------------------------|


C#|------------------------------------|
G#|------------------------------------|
E |------------------------------------|
B |----7---7---7---7---7---7---7---7---|
F#|--8---8---8---8---8---8---8---8-----|
B |------------------------------------|


[Chorus]:


C#|--------------------------------------------------------------------------------------------------|
G#|--------------------------------------------------------------------------------------------------|
E |--------------------------------------------------------------------------------------------------|
B |--8---8--8--8---8--8--8---8--8--10---10--10--12---12--12--12---12--12--10---10--10--10---10--10---|
F#|--8---8--8--8---8--8--8---8--8--10---10--10--12---12--12--12---12--12--10---10--10--10---10--10---|
B |--8---8--8--8---8--8--8---8--8--10---10--10--12---12--12--12---12--12--10---10--10--10---10--10---|


C#|--------------------------------------------------------------------------------------------------|
G#|--------------------------------------------------------------------------------------------------|
E |--------------------------------------------------------------------------------------------------|
B |--8---8--8--8---8--8--8---8--8--10---10--10--12---12--12--12---12--12--10---10--10--10---10--10---|
F#|--8---8--8--8---8--8--8---8--8--10---10--10--12---12--12--12---12--12--10---10--10--10---10--10---|
B |--8---8--8--8---8--8--8---8--8--10---10--10--12---12--12--12---12--12--10---10--10--10---10--10---|


C#|--------------------------------------------------------------------------------------------------|
G#|--------------------------------------------------------------------------------------------------|
E |--------------------------------------------------------------------------------------------------|
B |--8---8--8--8---8--8--8---8--8--10---10--10--12---12--12--12---12--12--10---10--10--10---10--10---|
F#|--8---8--8--8---8--8--8---8--8--10---10--10--12---12--12--12---12--12--10---10--10--10---10--10---|
B |--8---8--8--8---8--8--8---8--8--10---10--10--12---12--12--12---12--12--10---10--10--10---10--10---|


C#|--------------------------------------------------------------------------------------------------|
G#|--------------------------------------------------------------------------------------------------|
E |--------------------------------------------------------------------------------------------------|
B |--8---8--8--8---8--8--8---8--8--10---10--10--12---12--12--12---12--12--10---10--10--10-10-10-10---|
F#|--8---8--8--8---8--8--8---8--8--10---10--10--12---12--12--12---12--12--10---10--10--10-10-10-10---|
B |--8---8--8--8---8--8--8---8--8--10---10--10--12---12--12--12---12--12--10---10--10--10-10-10-10---|


[Bridge]:


C#|--------------------------------------------------------------------|
G#|--------------------------------------------------------------------|
E |--3-3-3-3-3-3-3-3-3-3-3-3-5-5-5-5-7-7-7-7-7-7-7-7-5-5-5-5-5-5-5-5---|
B |--3-3-3-3-3-3-3-3-3-3-3-3-5-5-5-5-7-7-7-7-7-7-7-7-5-5-5-5-5-5-5-5---|
F#|--1-1-1-1-1-1-1-1-1-1-1-1-3-3-3-3-5-5-5-5-5-5-5-5-3-3-3-3-3-3-3-3---|
B |--------------------------------------------------------------------|


C#|--------------------------------------------------------------------|
G#|--------------------------------------------------------------------|
E |--3-3-3-3-3-3-3-3-3-3-3-3-5-5-5-5-7-7-7-7-7-7-7-7-5-5-5-5-5-5-5-5---|
B |--3-3-3-3-3-3-3-3-3-3-3-3-5-5-5-5-7-7-7-7-7-7-7-7-5-5-5-5-5-5-5-5---|
F#|--1-1-1-1-1-1-1-1-1-1-1-1-3-3-3-3-5-5-5-5-5-5-5-5-3-3-3-3-3-3-3-3---|
B |--------------------------------------------------------------------|


C#|--------------------------------------------------------------------|
G#|--------------------------------------------------------------------|
E |--3-3-3-3-3-3-3-3-3-3-3-3-5-5-5-5-7-7-7-7-7-7-7-7-5-5-5-5-5-5-5-5---|
B |--3-3-3-3-3-3-3-3-3-3-3-3-5-5-5-5-7-7-7-7-7-7-7-7-5-5-5-5-5-5-5-5---|
F#|--1-1-1-1-1-1-1-1-1-1-1-1-3-3-3-3-5-5-5-5-5-5-5-5-3-3-3-3-3-3-3-3---|
B |--------------------------------------------------------------------|


C#|--------------------------------------------------------------------|
G#|--------------------------------------------------------------------|
E |--3-3-3-3-3-3-3-3-3-3-3-3-5-5-5-5-7-7-7-7-7-7-7-7-5-5-5-5-5-5-5-5---|
B |--3-3-3-3-3-3-3-3-3-3-3-3-5-5-5-5-7-7-7-7-7-7-7-7-5-5-5-5-5-5-5-5---|
F#|--1-1-1-1-1-1-1-1-1-1-1-1-3-3-3-3-5-5-5-5-5-5-5-5-3-3-3-3-3-3-3-3---|
B |--------------------------------------------------------------------|


[Chorus]:


C#|--------------------------------------------------------------------------------------------------|
G#|--------------------------------------------------------------------------------------------------|
E |--------------------------------------------------------------------------------------------------|
B |--8---8--8--8---8--8--8---8--8--10---10--10--12---12--12--12---12--12--10---10--10--10---10--10---|
F#|--8---8--8--8---8--8--8---8--8--10---10--10--12---12--12--12---12--12--10---10--10--10---10--10---|
B |--8---8--8--8---8--8--8---8--8--10---10--10--12---12--12--12---12--12--10---10--10--10---10--10---|


C#|--------------------------------------------------------------------------------------------------|
G#|--------------------------------------------------------------------------------------------------|
E |--------------------------------------------------------------------------------------------------|
B |--8---8--8--8---8--8--8---8--8--10---10--10--12---12--12--12---12--12--10---10--10--10---10--10---|
F#|--8---8--8--8---8--8--8---8--8--10---10--10--12---12--12--12---12--12--10---10--10--10---10--10---|
B |--8---8--8--8---8--8--8---8--8--10---10--10--12---12--12--12---12--12--10---10--10--10---10--10---|


C#|--------------------------------------------------------------------------------------------------|
G#|--------------------------------------------------------------------------------------------------|
E |--------------------------------------------------------------------------------------------------|
B |--8---8--8--8---8--8--8---8--8--10---10--10--12---12--12--12---12--12--10---10--10--10---10--10---|
F#|--8---8--8--8---8--8--8---8--8--10---10--10--12---12--12--12---12--12--10---10--10--10---10--10---|
B |--8---8--8--8---8--8--8---8--8--10---10--10--12---12--12--12---12--12--10---10--10--10---10--10---|


C#|--------------------------------------------------------------------------------------------------|
G#|--------------------------------------------------------------------------------------------------|
E |--------------------------------------------------------------------------------------------------|
B |--8---8--8--8---8--8--8---8--8--10---10--10--12---12--12--12---12--12--10---10--10--10---10--10---|
F#|--8---8--8--8---8--8--8---8--8--10---10--10--12---12--12--12---12--12--10---10--10--10---10--10---|
B |--8---8--8--8---8--8--8---8--8--10---10--10--12---12--12--12---12--12--10---10--10--10---10--10---|


[Outro]:


C#|-------|
G#|-------|
E |-------|
B |--8~---|
F#|--8~---|
B |--8~---|







12. Negative Space



[Intro]:


D|---------------------------------------------------------------------|
A|---------------------------------------------------------------------|
F|---------------------------------------------------------------------|
C|--4-4-4-5-5-5-5-5-5-5-5-5-5-5-5-5--4-4-4-5-5-5-5-5-5-5-5-5-5-5-5-5---|
G|--2-2-2-5-5-5-5-5-5-5-5-5-5-5-5-5--2-2-2-5-5-5-5-5-5-5-5-5-5-5-5-5---|
C|--------5-5-5-5-5-5-5-5-5-5-5-5-5--------5-5-5-5-5-5-5-5-5-5-5-5-5---|


D|---------------------------------------------------------------------|
A|---------------------------------------------------------------------|
F|---------------------------------------------------------------------|
C|--4-4-4-5-5-5-5-5-5-5-5-5-5-5-5-5--4-4-4-5-5-5-5-5-5-5-5-5-5-5-5-5---|
G|--2-2-2-5-5-5-5-5-5-5-5-5-5-5-5-5--2-2-2-5-5-5-5-5-5-5-5-5-5-5-5-5---|
C|--------5-5-5-5-5-5-5-5-5-5-5-5-5--------5-5-5-5-5-5-5-5-5-5-5-5-5---|


[Verse]:


D|----------2~--------------2~--------------2~---|
A|--------3---------------3---------------3------|
F|--4-4-4-----------4-4-4-----------4-4-4--------|
C|-----------------------------------------------|
G|-----------------------------------------------|
C|-----------------------------------------------|


[Pre-Chorus]:


D|--------------2--2-2------|
A|--3-2-------3-------------|
F|------4-2-4---------------|
C|--------------------------|
G|--------------------------|
C|----------------------/---|


[Chorus]:


D|--------------------------------------------------------------------|
A|--------------------------------------------------------------------|
F|--------------------------------------------------------------------|
C|--5-5-5-5-5-5-5-5-5-5-5-5-5-5-5-5-2-2-2-2-2-2-2-2-2-2-2-2-2-2-4-4---|
G|--5-5-5-5-5-5-5-5-5-5-5-5-5-5-5-5-2-2-2-2-2-2-2-2-2-2-2-2-2-2-4-4---|
C|--5-5-5-5-5-5-5-5-5-5-5-5-5-5-5-5-2-2-2-2-2-2-2-2-2-2-2-2-2-2-4-4---|


D|--------------------------------------------------------------------|
A|--------------------------------------------------------------------|
F|--------------------------------------------------------------------|
C|--5-5-5-5-5-5-5-5-5-5-5-5-5-5-5-5-2-2-2-2-2-2-2-2-2-2-2-2-2-2-4-4---|
G|--5-5-5-5-5-5-5-5-5-5-5-5-5-5-5-5-2-2-2-2-2-2-2-2-2-2-2-2-2-2-4-4---|
C|--5-5-5-5-5-5-5-5-5-5-5-5-5-5-5-5-2-2-2-2-2-2-2-2-2-2-2-2-2-2-4-4---|


D|----------------------------------------------------------------|
A|----------------------------------------------------------------|
F|----------------------------------------------------------------|
C|--5-5-5-5-5-5-5-5-5-5-5-5-5-5-5-5-2-2-2-2-2-2-2-2-2-2-2-2-2-2---|
G|--5-5-5-5-5-5-5-5-5-5-5-5-5-5-5-5-2-2-2-2-2-2-2-2-2-2-2-2-2-2---|
C|--5-5-5-5-5-5-5-5-5-5-5-5-5-5-5-5-2-2-2-2-2-2-2-2-2-2-2-2-2-2---|


D|-------------------------------------------------------------|
A|-------------------------------------------------------------|
F|--7~-----9~--------------------------------------7~-----9~---|
C|--7~-----9~-----5-5-5-5-5-5-5-5-5-5-5-5-5-5-5-5--7~-----9~---|
G|--5~-----7~-----5-5-5-5-5-5-5-5-5-5-5-5-5-5-5-5--5~-----7~---|
C|----------------5-5-5-5-5-5-5-5-5-5-5-5-5-5-5-5--------------|


D|------------------------------------|
A|------------------------------------|
F|------------------------------------|
C|--5-5-5-5-5-5-5-5-5-5-5-5-5-5-5-5---|
G|--5-5-5-5-5-5-5-5-5-5-5-5-5-5-5-5---|
C|--5-5-5-5-5-5-5-5-5-5-5-5-5-5-5-5---|


[Verse 2]:


D|---------------------------------------------------------------------|
A|---------------------------------------------------------------------|
F|---------------------------------------------------------------------|
C|--4-4-4----------------------------4-4-4-----------------------------|
G|--2-2-2-5-5-5-5-5-5-5-5-5-5-5-5-5--2-2-2-5-5-5-5-5-5-5-5-5-5-5-5-5---|
C|--------5-5-5-5-5-5-5-5-5-5-5-5-5--------5-5-5-5-5-5-5-5-5-5-5-5-5---|
    . . . . . . . . . . . . . . . .  . . . . . . . . . . . . . . . .


D|---------------------------------------------------------|
A|---------------------------------------------------------|
F|---------------------------------------------------------|
C|--4-4-4----------------------------4-4-4-----------------|
G|--2-2-2-5-5-5-5-5-5-5-5-5-5-5-5-5--2-2-2-5-5-5-5-5-5-----|
C|--------5-5-5-5-5-5-5-5-5-5-5-5-5--------5-5-5-5-5-5-\---|
    . . . . . . . . . . . . . . . .  . . . . . . . . .


[Chorus]:


D|--------------------------------------------------------------------|
A|--------------------------------------------------------------------|
F|--------------------------------------------------------------------|
C|--5-5-5-5-5-5-5-5-5-5-5-5-5-5-5-5-2-2-2-2-2-2-2-2-2-2-2-2-2-2-4-4---|
G|--5-5-5-5-5-5-5-5-5-5-5-5-5-5-5-5-2-2-2-2-2-2-2-2-2-2-2-2-2-2-4-4---|
C|--5-5-5-5-5-5-5-5-5-5-5-5-5-5-5-5-2-2-2-2-2-2-2-2-2-2-2-2-2-2-4-4---|


D|--------------------------------------------------------------------|
A|--------------------------------------------------------------------|
F|--------------------------------------------------------------------|
C|--5-5-5-5-5-5-5-5-5-5-5-5-5-5-5-5-2-2-2-2-2-2-2-2-2-2-2-2-2-2-4-4---|
G|--5-5-5-5-5-5-5-5-5-5-5-5-5-5-5-5-2-2-2-2-2-2-2-2-2-2-2-2-2-2-4-4---|
C|--5-5-5-5-5-5-5-5-5-5-5-5-5-5-5-5-2-2-2-2-2-2-2-2-2-2-2-2-2-2-4-4---|


D|----------------------------------------------------------------|
A|----------------------------------------------------------------|
F|----------------------------------------------------------------|
C|--5-5-5-5-5-5-5-5-5-5-5-5-5-5-5-5-2-2-2-2-2-2-2-2-2-2-2-2-2-2---|
G|--5-5-5-5-5-5-5-5-5-5-5-5-5-5-5-5-2-2-2-2-2-2-2-2-2-2-2-2-2-2---|
C|--5-5-5-5-5-5-5-5-5-5-5-5-5-5-5-5-2-2-2-2-2-2-2-2-2-2-2-2-2-2---|


D|-------------------------------------------------------------|
A|-------------------------------------------------------------|
F|--7~-----9~--------------------------------------7~-----9~---|
C|--7~-----9~-----5-5-5-5-5-5-5-5-5-5-5-5-5-5-5-5--7~-----9~---|
G|--5~-----7~-----5-5-5-5-5-5-5-5-5-5-5-5-5-5-5-5--5~-----7~---|
C|----------------5-5-5-5-5-5-5-5-5-5-5-5-5-5-5-5--------------|


D|----------------------------------------|
A|----------------------------------------|
F|----------------------------------------|
C|--5-5-5-5-5-5-5-5-5-5-5-5-5-5-5-5--4~---|
G|--5-5-5-5-5-5-5-5-5-5-5-5-5-5-5-5--2~---|
C|--5-5-5-5-5-5-5-5-5-5-5-5-5-5-5-5-------|


[Bridge]:


D|------------------------------------------------------------|
A|------------------------------------------------------------|
F|------------------------------------------------------------|
C|--2~-----4-4~-----5~-----7~-----5~-----2~-----4-4~-----5~---|
G|--2~-----4-4~-----5~-----7~-----5~-----2~-----4-4~-----5~---|
C|--2~-----4-4~-----5~-----7~-----5~-----2~-----4-4~-----5~---|


D|------------------------------------|
A|------------------------------------|
F|------------------------------------|
C|------------------------------------|
G|--7-7-7-7-7-7-7-7-7-7-7-7-7-7-7-7---|
C|--7-7-7-7-7-7-7-7-7-7-7-7-7-7-7-7---|
    . . . . . . . . . . . . .


D|---------------------------------------------------------------------|
A|---------------------------------------------------------------------|
F|---------------------------------------------------------------------|
C|--5-5-5-5-5-5-5-5-5-5-5-5-5-5-5-5--2-2-2-2-2-2-2-2-2-2-4-4-4-4-4-4---|
G|--5-5-5-5-5-5-5-5-5-5-5-5-5-5-5-5--2-2-2-2-2-2-2-2-2-2-4-4-4-4-4-4---|
C|--5-5-5-5-5-5-5-5-5-5-5-5-5-5-5-5--2-2-2-2-2-2-2-2-2-2-4-4-4-4-4-4---|


D|-------------------------------------------------------|
A|-------------------------------------------------------|
F|-------------------------------------------------------|
C|--5-5-5-5-5-5-5-5-5-5-5-5-5-5-5-5--7-7-7-7-7-7-7-7-----|
G|--5-5-5-5-5-5-5-5-5-5-5-5-5-5-5-5--7-7-7-7-7-7-7-7-----|
C|--5-5-5-5-5-5-5-5-5-5-5-5-5-5-5-5--7-7-7-7-7-7-7-7-\---|


[Chorus 2]:


D|--------------------------------------------------|
A|--------------------------------------------------|
F|--------------------------------------------------|
C|--5~-----------2-------------2-2--2-2-2-2-2-4-4---|
G|--5~------x-x--2--2-2-2-2-2--2-2--2-2-2-2-2-4-4---|
C|--5~------x-x--2--2-2-2-2-2--2-2--2-2-2-2-2-4-4---|
                    . . . . .


D|--------------------------------------------------------------------|
A|--------------------------------------------------------------------|
F|--------------------------------------------------------------------|
C|--5-5-5-5-5-5-5-5-5-5-5-5-5-5-5-5-2-2-2-2-2-2-2-2-2-2-2-2-2-2-4-4---|
G|--5-5-5-5-5-5-5-5-5-5-5-5-5-5-5-5-2-2-2-2-2-2-2-2-2-2-2-2-2-2-4-4---|
C|--5-5-5-5-5-5-5-5-5-5-5-5-5-5-5-5-2-2-2-2-2-2-2-2-2-2-2-2-2-2-4-4---|


D|----------------------------------------------------------------|
A|----------------------------------------------------------------|
F|----------------------------------------------------------------|
C|--5-5-5-5-5-5-5-5-5-5-5-5-5-5-5-5-2-2-2-2-2-2-2-2-2-2-2-2-2-2---|
G|--5-5-5-5-5-5-5-5-5-5-5-5-5-5-5-5-2-2-2-2-2-2-2-2-2-2-2-2-2-2---|
C|--5-5-5-5-5-5-5-5-5-5-5-5-5-5-5-5-2-2-2-2-2-2-2-2-2-2-2-2-2-2---|


D|-------------------------------------------------------------|
A|-------------------------------------------------------------|
F|--7~-----9~--------------------------------------7~-----9~---|
C|--7~-----9~-----5-5-5-5-5-5-5-5-5-5-5-5-5-5-5-5--7~-----9~---|
G|--5~-----7~-----5-5-5-5-5-5-5-5-5-5-5-5-5-5-5-5--5~-----7~---|
C|----------------5-5-5-5-5-5-5-5-5-5-5-5-5-5-5-5--------------|


D|------------------------------------|
A|------------------------------------|
F|------------------------------------|
C|--5-5-5-5-5-5-5-5-5-5-5-5-5-5-5-5---|
G|--5-5-5-5-5-5-5-5-5-5-5-5-5-5-5-5---|
C|--5-5-5-5-5-5-5-5-5-5-5-5-5-5-5-5---|


[Outro]:


D|-------|
A|-------|
F|--4~---|
C|--4~---|
G|--2~---|
C|-------|







13. In Florida



[Intro]:


D|---------------------------------------------------------------------------------|
A|---------------------------------------------------------------------------------|
F|--6----6--6---6--6----7----7--7---7--7----4----4--4---4--4----4----4--4---4--4---|
C|--7----7--7---7--7----7----7--7---7--7----4----4--4---4--4----4----4--4---4--4---|
G|---------------------------------------------------------------------------------|
C|---------------------------------------------------------------------------------|


D|---------------------------------------------------------------------------------|
A|---------------------------------------------------------------------------------|
F|--6----6--6---6--6----7----7--7---7--7----4----4--4---4--4----1----1--1---1--1---|
C|--7----7--7---7--7----7----7--7---7--7----4----4--4---4--4----2----2--2---2--2---|
G|---------------------------------------------------------------------------------|
C|---------------------------------------------------------------------------------|


[Verse]:


D|---------------------------------------------------------------------------------|
A|---------------------------------------------------------------------------------|
F|--6----6--6---6--6----7----7--7---7--7----4----4--4---4--4----4----4--4---4--4---|
C|--7----7--7---7--7----7----7--7---7--7----4----4--4---4--4----4----4--4---4--4---|
G|---------------------------------------------------------------------------------|
C|---------------------------------------------------------------------------------|


D|---------------------------------------------------------------------------------|
A|---------------------------------------------------------------------------------|
F|--6----6--6---6--6----7----7--7---7--7----4----4--4---4--4----1----1--1---1--1---|
C|--7----7--7---7--7----7----7--7---7--7----4----4--4---4--4----2----2--2---2--2---|
G|---------------------------------------------------------------------------------|
C|---------------------------------------------------------------------------------|


D|---------------------------------------------------------------------------------|
A|---------------------------------------------------------------------------------|
F|--6----6--6---6--6----7----7--7---7--7----4----4--4---4--4----4----4--4---4--4---|
C|--7----7--7---7--7----7----7--7---7--7----4----4--4---4--4----4----4--4---4--4---|
G|---------------------------------------------------------------------------------|
C|---------------------------------------------------------------------------------|


D|------------------------------------------------------------------------------|
A|------------------------------------------------------------------------------|
F|--6----6--6---6--6----7----7--7---7--7----4----4--4---4--4----1----1--1---1---|
C|--7----7--7---7--7----7----7--7---7--7----4----4--4---4--4----2----2--2---2---|
G|------------------------------------------------------------------------------|
C|------------------------------------------------------------------------------|


[Chorus]:


D|---------------------------------------------------------------------------------|
A|---------------------------------------------------------------------------------|
F|--7----7---7--7---7--7---7--7--7-------------------------------------------------|
C|--7----7---7--7---7--7---7--7--7--2----2---2---2--2--2----4----4---4---4--4--4---|
G|--5----5---5--5---5--5---5--5--5--2----2---2---2--2--2----4----4---4---4--4--4---|
C|----------------------------------2----2---2---2--2--2----4----4---4---4--4--4---|


D|---------------------------------------------------------------------------------|
A|---------------------------------------------------------------------------------|
F|--7----7---7--7---7--7---7--7--7-------------------------------------------------|
C|--7----7---7--7---7--7---7--7--7--2----2---2---2--2--2----4----4---4---4--4--4---|
G|--5----5---5--5---5--5---5--5--5--2----2---2---2--2--2----4----4---4---4--4--4---|
C|----------------------------------2----2---2---2--2--2----4----4---4---4--4--4---|


D|---------------------------------------------------------------------------------|
A|---------------------------------------------------------------------------------|
F|--7----7---7--7---7--7---7--7--7-------------------------------------------------|
C|--7----7---7--7---7--7---7--7--7--2----2---2---2--2--2----4----4---4---4--4--4---|
G|--5----5---5--5---5--5---5--5--5--2----2---2---2--2--2----4----4---4---4--4--4---|
C|----------------------------------2----2---2---2--2--2----4----4---4---4--4--4---|


D|----------------------------------------------|
A|----------------------------------------------|
F|----------------7----7--7--7------------------|
C|--x-x-7-7--x-x--7----7--7--7-----2--2--2--4---|
G|--x-x-7-7--x-x--5----5--5--5-----2--2--2--4---|
C|--x-x-7-7--x-x-------------------2--2--2--4---|


[Verse]:


D|---------------------------------------------------------------------------------|
A|---------------------------------------------------------------------------------|
F|--6----6--6---6--6----7----7--7---7--7----4----4--4---4--4----4----4--4---4--4---|
C|--7----7--7---7--7----7----7--7---7--7----4----4--4---4--4----4----4--4---4--4---|
G|---------------------------------------------------------------------------------|
C|---------------------------------------------------------------------------------|


D|-------------------------------------------------------------------------------|
A|-------------------------------------------------------------------------------|
F|--6----6--6---6--6----7----7--7---7--7----4----4--4---4--4----1----------1-1---|
C|--7----7--7---7--7----7----7--7---7--7----4----4--4---4--4----2----------2-2---|
G|-------------------------------------------------------------------0-0-0-------|
C|-------------------------------------------------------------------0-0-0-------|
                                                                     . . .

D|---------------------------------------------------------------------------------|
A|---------------------------------------------------------------------------------|
F|--6----6--6---6--6----7----7--7---7--7----4----4--4---4--4----4----4--4---4--4---|
C|--7----7--7---7--7----7----7--7---7--7----4----4--4---4--4----4----4--4---4--4---|
G|---------------------------------------------------------------------------------|
C|---------------------------------------------------------------------------------|


D|---------------------------------------------------------------------------|
A|---------------------------------------------------------------------------|
F|--6----6--6---6--6----7----7--7---7--7----4----4--4---4--4----1---1---1/---|
C|--7----7--7---7--7----7----7--7---7--7----4----4--4---4--4----2---2---2/---|
G|---------------------------------------------------------------------------|
C|---------------------------------------------------------------------------|


[Chorus]:


D|---------------------------------------------------------------------------------|
A|---------------------------------------------------------------------------------|
F|--7----7---7--7---7--7---7--7--7-------------------------------------------------|
C|--7----7---7--7---7--7---7--7--7--2----2---2---2--2--2----4----4---4---4--4--4---|
G|--5----5---5--5---5--5---5--5--5--2----2---2---2--2--2----4----4---4---4--4--4---|
C|----------------------------------2----2---2---2--2--2----4----4---4---4--4--4---|


D|---------------------------------------------------------------------------------|
A|---------------------------------------------------------------------------------|
F|--7----7---7--7---7--7---7--7--7-------------------------------------------------|
C|--7----7---7--7---7--7---7--7--7--2----2---2---2--2--2----4----4---4---4--4--4---|
G|--5----5---5--5---5--5---5--5--5--2----2---2---2--2--2----4----4---4---4--4--4---|
C|----------------------------------2----2---2---2--2--2----4----4---4---4--4--4---|


D|---------------------------------------------------------------------------------|
A|---------------------------------------------------------------------------------|
F|--7----7---7--7---7--7---7--7--7-------------------------------------------------|
C|--7----7---7--7---7--7---7--7--7--2----2---2---2--2--2----4----4---4---4--4--4---|
G|--5----5---5--5---5--5---5--5--5--2----2---2---2--2--2----4----4---4---4--4--4---|
C|----------------------------------2----2---2---2--2--2----4----4---4---4--4--4---|


D|--------------------------------------------|
A|--------------------------------------------|
F|----------7---7--7--7-----------------------|
C|--7--7----7---7--7--7---4--4--4--2---2--2---|
G|--7--7----5---5--5--5---4--4--4--2---2--2---|
C|--7--7------------------4--4--4--2---2--2---|


D|--------------------------------------|
A|--------------------------------------|
F|----------7---7--7--7-----------------|
C|--7--7----7---7--7--7---4--4--4--2~---|
G|--7--7----5---5--5--5---4--4--4--2~---|
C|--7--7------------------4--4--4--2~---|


[Bridge]:


D|--------------------------------------|
A|--------------------------------------|
F|--7~-----7/4--4~-----7~-----7/4--4~---|
C|--x------x/x--x------x------x/x--x----|
G|--5~-----5/2--2~-----5~-----5/2--2~---|
C|--------------------------------------|


D|--------------------------------------------------------------------|
A|--------------------------------------------------------------------|
F|--------------------------------------------------------------------|
C|--7-7-7-7-7-7-7-7-7-7-7-7-7-7-7-7-4-4-4-4-4-4-4-4-4-4-4-4-4-4-4-4---|
G|--5-5-5-5-5-5-5-5-5-5-5-5-5-5-5-5-2-2-2-2-2-2-2-2-2-2-2-2-2-2-2-2---|
C|--------------------------------------------------------------------|
    . . . . . . . . . . . . . . . . . . . . . . . . . . . . . . . .


D|--------------------------------------------------------------------|
A|--------------------------------------------------------------------|
F|--------------------------------------------------------------------|
C|--7-7-7-7-7-7-7-7-7-7-7-7-7-7-7-7-4-4-4-4-4-4-4-4-4-4-4-4-4-4-4-4---|
G|--5-5-5-5-5-5-5-5-5-5-5-5-5-5-5-5-2-2-2-2-2-2-2-2-2-2-2-2-2-2-2-2---|
C|--------------------------------------------------------------------|
    . . . . . . . . . . . . . . . . . . . . . . . .


D|-------------------------------------------------------------|
A|-------------------------------------------------------------|
F|--14---14--14--14--14--14--14----13--13--13--13--13--13--11--|
C|--x----x---x---x---x---x---x-----x---x---x---x---x---x---x---|
G|--12---12--12--12--12--12--12----11--11--11--11--11--11--9---|
C|-------------------------------------------------------------|


D|------------------------------------------------|
A|------------------------------------------------|
F|--9--9--9--9--9--9--9-----9--9--9--9--9--9--9---|
C|--x--x--x--x--x--x--x-----x--x--x--x--x--x--x---|
G|--7--7--7--7--7--7--7-----7--7--7--7--7--7--7---|
C|------------------------------------------------|


D|-------------------------------------------------------------|
A|-------------------------------------------------------------|
F|--14---14--14--14--14--14--14----13--13--13--13--13--13--11--|
C|--x----x---x---x---x---x---x-----x---x---x---x---x---x---x---|
G|--12---12--12--12--12--12--12----11--11--11--11--11--11--9---|
C|-------------------------------------------------------------|


D|------------------------------------------------|
A|------------------------------------------------|
F|--9--9--9--9--9--9--9-----9--9--9--9--9--9--9---|
C|--x--x--x--x--x--x--x-----x--x--x--x--x--x--x---|
G|--7--7--7--7--7--7--7-----7--7--7--7--7--7--7---|
C|------------------------------------------------|


D|-------------------------------------------------|
A|-------------------------------------------------|
F|--9-9-9/11--11-11-11/13--13-13-13/14--14-14-14---|
C|--x-x-x/x---x--x--x-/x---x--x--x-/x---x--x--x----|
G|--7-7-7/9---9--9--9-/11--11-11-11/12--12-12-12---|
C|-------------------------------------------------|


D|-------------------------------------------------|
A|-------------------------------------------------|
F|--9-9-9/11--11-11-11/13--13-13-13/14--14-14-14---|
C|--x-x-x/x---x--x--x-/x---x--x--x-/x---x--x--x----|
G|--7-7-7/9---9--9--9-/11--11-11-11/12--12-12-12---|
C|-------------------------------------------------|


[Chorus]:


D|--------------|
A|--------------|
F|--------------|
C|--2~-----4~---|
G|--2~-----4~---|
C|--2~-----4~---|


D|---------------------------------------------------------------------------------|
A|---------------------------------------------------------------------------------|
F|--7----7---7--7---7--7---7--7--7-------------------------------------------------|
C|--7----7---7--7---7--7---7--7--7--2----2---2---2--2--2----4----4---4---4--4--4---|
G|--5----5---5--5---5--5---5--5--5--2----2---2---2--2--2----4----4---4---4--4--4---|
C|----------------------------------2----2---2---2--2--2----4----4---4---4--4--4---|


D|---------------------------------------------------------------------------------|
A|---------------------------------------------------------------------------------|
F|--7----7---7--7---7--7---7--7--7-------------------------------------------------|
C|--7----7---7--7---7--7---7--7--7--2----2---2---2--2--2----4----4---4---4--4--4---|
G|--5----5---5--5---5--5---5--5--5--2----2---2---2--2--2----4----4---4---4--4--4---|
C|----------------------------------2----2---2---2--2--2----4----4---4---4--4--4---|


D|--------------------------------------------|
A|--------------------------------------------|
F|----------7---7--7--7-----------------------|
C|--7--7----7---7--7--7---2--2--2--4---4--4---|
G|--7--7----5---5--5--5---2--2--2--4---4--4---|
C|--7--7------------------2--2--2--4---4--4---|


D|--------------------------------------|
A|--------------------------------------|
F|----------7---7--7--7-----------------|
C|--7--7----7---7--7--7---2--2--2--4~---|
G|--7--7----5---5--5--5---2--2--2--4~---|
C|--7--7------------------2--2--2--4~---|




_________________


x - Dead note
h - Hammer-on
p - Pull-off
~ - Vibrato / Hold
. - Palm mute
/ - Slide up
\ - Slide down
* - Harmonic

_________________ 

            
            
Suggest correction
Creating personal tab
Creating personal tab
You can edit any tab online and save it as your Personal.

You can edit, replace or remove any tab part or add personal notes – all changes will be seen only by you.

Personal tabs can be accessed anytime from any device, even offline.
Learn more »
Give kudos to tab author, rate the tab!
1 2 3 4 5
comments
print report bad tab
1 comment total.
0 reply
MoniqueHoppus 56 May 13, 2017 07:31 AM

Thank you for crediting me. Amazing tab! :)

guest
You may want to rate the tab now too:
select rating
Wanna post a correction for this tab? Suggest correction