Oops, an error
Loading. Please wait.

Bad Vibrations tab

version 1
version 1

Whole song

Interactive

7,903 views 57 this week
no commentswrite comment
1 2 3 4 5
x 7
add to favorites
×
Save as Personal and add changes to this tab that will be seen only by you. Learn more ›
×
You can save this tab as Personal to edit and correct it or add notes. All changes will be seen only by you. Learn more »
launch autoscroll
font size
0
reset
how to read this tab
guitar tuner
edit
Autoscroll
slow
fast
+/-
esc
set tempo
stop
[Intro]

C#|---------------------------------------------------------------------------|
G#|------------7------------------------------------------------7-------------|
E |------------10-----------------------------------------------10------------|
B |---------------------------------------------------------------------------|
F#|-0-0-0-0--0----0--0-0-0---0-0-0-0--0----0-0-0------0-0-0-0--0----0--0-0-0--|
B |-0-0-0-0--0----0--0-0-0---0-0-0-0--0-1--0-0-0-4----0-0-0-0--0----0--0-0-0--|

C#|---------------------------------------------------------------------------|
G#|-------------------------------------7-------------------------------------|
E |-------------------------------------10------------------------------------|
B |---------------------------------------------------------------------------|
F#|-8--8-8--8-8--5--5-5--5---0-0-0-0--0----0--0-0-0---0-0-0-0--0----0-0-0-----|
B |-8--8-8--8-8--5--5-5--5---0-0-0-0--0----0--0-0-0---0-0-0-0--0-1--0-0-0-4---|

C#|---------------------------------------------------------------------------|
G#|-------------7-------------------------------------------------------------|
E |-------------10------------------------------------------------------------|
B |---------------------------------------------------------------------------|
F#|-0-0-0-0--0-----0--0-0-0--5--5-5--5--11--11-11--11-------------------------|
B |-0-0-0-0--0-----0--0-0-0--5--5-5--5--11--11-11--11-------------------------|

[Verse]

C#|---------------------------------------------------------------------------------|
G#|---------------------------------------------------------------------------------|
E |-7-7-7-7-7-7-7-7-7-7-7-7-7-7-7-7-7-7-7-7-7-7-7-7-7-7-7-7-7-7-7-7-12-12-12-12-----|
B |---------------------------------------------------------------------------------|
F#|-5-5-5-5-5-5-5-5-5-5-5-5-5-5-5-5-5-5-5-5-5-5-5-5-5-5-5-5-5-5-5-5-10-10-10-10-----|
B |---------------------------------------------------------------------------------|

C#|---------------------------------------------------------------------------------|
G#|---------------------------------------------------------------------------------|
E |-15-15-15-15-15-15-15-15-15-15-15-15-15-15-15-15-15-15-15-15-18-18-18-18-18------|
B |---------------------------------------------------------------------------------|
F#|-13-13-13-13-13-13-13-13-13-13-13-13-13-13-13-13-13-13-13-13-16-16-16-16-16------|
B |---------------------------------------------------------------------------------|

C#|---------------------------------------------------------------------------------|
G#|---------------------------------------------------------------------------------|
E |-7-7-7-7-7-7-7-7-7-7-7-7-7-7-7-7-7-7-7-7-7-7-7-7-7-7-7-7-7-7-7-7-12-12-12-12-----|
B |---------------------------------------------------------------------------------|
F#|-5-5-5-5-5-5-5-5-5-5-5-5-5-5-5-5-5-5-5-5-5-5-5-5-5-5-5-5-5-5-5-5-10-10-10-10-----|
B |---------------------------------------------------------------------------------|

C#|---------------------------------------------------------------------------------|
G#|---------------------------------------------------------------------------------|
E |-15-15-15-15-15-15-15-15-15-15-15-15-15-15-15-15-15-15-15-15-14-14-14-14-14------|
B |---------------------------------------------------------------------------------|
F#|-13-13-13-13-13-13-13-13-13-13-13-13-13-13-13-13-13-13-13-13-12-12-12-12-12------|
B |---------------------------------------------------------------------------------|

[Prechorus]

C#|---------------------------------------------------------------------------|
G#|---------------------------------------------------------------------------|
E |---------------------------------------------------------------------------|
B |---------------------------------------------------------------------------|
F#|-------5------------5----------8---------8-7--------8----------8-7---------|
B |-8-8-8---8--8-8-8-8---8--5-5-5--5--5-5-5------0-0-0---0--0-0-0-------------|

C#|---------------------------------------------------------------------------|
G#|---------------------------------------------------------------------------|
E |-----------------------------------------------------------------10-9------|
B |------------------5-7-5----------------------------------------------------|
F#|-------8------7-8-------8-7-5--------5------------5----------8---8--7------|
B |-3-3-3---3--3------------------8-8-8---8--8-8-8-8---8--5-5-5---5-----------|

[Chorus]

C#|---------------------------------------------------------------------------|
G#|---------------------------------------------------------------------------|
E |---------------------------------------------------------------------------|
B |-8-8-8-8-8-8-8-8-8-8-8-8-8-8-8-8-0-0-0-0-0-0-0-0-0-3-3-3-3-3-3-3-3-3-------|
F#|-8-8-8-8-8-8-8-8-8-8-8-8-8-8-8-8-0-0-0-0-0-0-0-0-0-3-3-3-3-3-3-3-3-3-------|
B |-8-8-8-8-8-8-8-8-8-8-8-8-8-8-8-8-0-0-0-0-0-0-0-0-0-3-3-3-3-3-3-3-3-3-------|

C#|---------------------------------------------------------------------------|
G#|---------------------------------------------------------------------------|
E |----------------------------------------------------------------------7----|
B |-8-8-8-8-8-8-8-8-8-8-8-8-8-8-8-8-0-0-0-0-0-0-0-0-0-3-3-3-3-3-3-3-3-3-------|
F#|-8-8-8-8-8-8-8-8-8-8-8-8-8-8-8-8-0-0-0-0-0-0-0-0-0-3-3-3-3-3-3-3-3-3--5----|
B |-8-8-8-8-8-8-8-8-8-8-8-8-8-8-8-8-0-0-0-0-0-0-0-0-0-3-3-3-3-3-3-3-3-3-------|

[Verse 2]

C#|---------------------------------------------------------------------------------|
G#|---------------------------------------------------------------------------------|
E |-7-7-7-7-7-7-7-7-7-7-7-7-7-7-7-7-7-7-7-7-7-7-7-7-7-7-7-7-7-7-7-7-12-12-12-12-----|
B |---------------------------------------------------------------------------------|
F#|-5-5-5-5-5-5-5-5-5-5-5-5-5-5-5-5-5-5-5-5-5-5-5-5-5-5-5-5-5-5-5-5-10-10-10-10-----|
B |---------------------------------------------------------------------------------|

C#|---------------------------------------------------------------------------------|
G#|---------------------------------------------------------------------------------|
E |-15-15-15-15-15-15-15-15-15-15-15-15-15-15-15-15-15-15-15-15-18-18-18-18-18------|
B |---------------------------------------------------------------------------------|
F#|-13-13-13-13-13-13-13-13-13-13-13-13-13-13-13-13-13-13-13-13-16-16-16-16-16------|
B |---------------------------------------------------------------------------------|

C#|---------------------------------------------------------------------------|
G#|---------------------------------------------------------------------------|
E |---------------------------------------------------------------------------|
B |---------------------------------------------------------------------------|
F#|---------------------------------------------------------------------------|
B |-0-0-0--0--0---0-0-0--0-0-5-5-5--5-5---8-8-8--8-8--8-8-8--8--7-------------|

[Chorus]

C#|--------------------------------------------------------------------------------------|
G#|--------------------------------------------------------------------------------------|
E |--------------------------------------------------------------------------------------|
B |-8-8-8-8-8-10-10-10-10-10-10-10-10-10-10-10-0-0-0-0-0-0-0-0-0-3-3-3-3-3-3-3-3-3-------|
F#|-8-8-8-8-8-10-10-10-10-10-10-10-10-10-10-10-0-0-0-0-0-0-0-0-0-3-3-3-3-3-3-3-3-3-------|
B |-8-8-8-8-8-10-10-10-10-10-10-10-10-10-10-10-0-0-0-0-0-0-0-0-0-3-3-3-3-3-3-3-3-3-------|

C#|---------------------------------------------------------------------------|
G#|---------------------------------------------------------------------------|
E |---------------------------------------------------------------------------|
B |-8-8-8-8-8-8-8-8-8-8-8-8-8-8-8-8-0-0-0-0-0-0-0-0-0-3-3-3-3-3-3-3-3-3-------|
F#|-8-8-8-8-8-8-8-8-8-8-8-8-8-8-8-8-0-0-0-0-0-0-0-0-0-3-3-3-3-3-3-3-3-3-------|
B |-8-8-8-8-8-8-8-8-8-8-8-8-8-8-8-8-0-0-0-0-0-0-0-0-0-3-3-3-3-3-3-3-3-3-------|

C#|---------------------------------------------------------------------------|
G#|---------------------------------------------------------------------------|
E |---------------------------------------------------------------------------|
B |------------x-x-x-x-8-8-8-8-8-8-8-8-0-0-0-0-0-0-0-0-0-3-3-3-3-3-3-3-3-3----|
F#|------------x-x-x-x-8-8-8-8-8-8-8-8-0-0-0-0-0-0-0-0-0-3-3-3-3-3-3-3-3-3----|
B |------------x-x-x-x-8-8-8-8-8-8-8-8-0-0-0-0-0-0-0-0-0-3-3-3-3-3-3-3-3-3----|

C#|---------------------------------------------------------------------------|
G#|---------------------------------------------------------------------------|
E |---------------------------------------------------------------------------|
B |-8-8-8-8-8-8-8-8-8-8-8-8-8-8-8-8-0-0-0-0-0-0-0-0-0-3-3-3-3-3-3-3-3-3-------|
F#|-8-8-8-8-8-8-8-8-8-8-8-8-8-8-8-8-0-0-0-0-0-0-0-0-0-3-3-3-3-3-3-3-3-3-------|
B |-8-8-8-8-8-8-8-8-8-8-8-8-8-8-8-8-0-0-0-0-0-0-0-0-0-3-3-3-3-3-3-3-3-3-------|

[Bridge]

C#|---------------------------------------------------------------------------|
G#|-4--4--4-4--4--4-4--4--4-4-4-4----4--4--4-4--4--4-4--4--4-4-4-4------------|
E |-7--7--7-7--7--7-7--7--7-7-7-7----7--7--7-7--7--7-7--7--7-7-7-7------------|
B |---------------------------------------------------------------------------|
F#|---------------------------------------------------------------------------|
B |---------------------------------------------------------------------------|

C#|---------------------------------------------------------------------------|
G#|-4--4--4-4--4--4-4--4--4-4-4-4----4--4--4-4--4--4-4--4--4-4-4-4------------|
E |-7--7--7-7--7--7-7--7--7-7-7-7----7--7--7-7--7--7-7--7--7-7-7-7------------|
B |---------------------------------------------------------------------------|
F#|---------------------------------------------------------------------------|
B |---------------------------------------------------------------------------|

[Breakdown]

C#|-----------------------------------------------------------------------------------------|
G#|-----------------------------------------------------------------------------------------|
E |-----------------------------------------------------------------------------------------|
B |-----------------------------------------------------------------------------------------|
F#|-0-0--0-0---0-0---0-0--0-0----0-0---0-0---0-0--0-0---0-0----0-0-0--0-0--0-0---0-0--0-0---|
B |-0-0--0-0---0-0---0-0--0-0----0-0---0-0---0-0--0-0---0-0-1--0-0-0--0-0--0-0---0-0--0-0---|

C#|-----------------------------------------------------------------------------------------|
G#|-----------------------------------------------------------------------------------------|
E |-----------------------------------------------------------------------------------------|
B |-----------------------------------------------------------------------------------------|
F#|-----------------------------------------------------------------------------------------|
B |-12p0-12p0-11p0-12p0-11p0-12p0-11p0-8h10p8--12p0-12p0-11p0-12p0-11p0-12p0-11p0-8h10p8----|

C#|-----------------------------------------------------------------------------------------|
G#|-----------------------------------------------------------------------------------------|
E |-----------------------------------------------------------------------------------------|
B |--------------------------------------------------------------------------------1--4-----|
F#|--------------------------------------------------------------------------------1--4-----|
B |-12p0-12p0-11p0-12p0-11p0-12p0-11p0-8h10p8--12p0-12p0-11p0-12p0-11p0-12p0-11p0--1--4-----|

C#|-----------------------------------------------------------------------------------------|
G#|-----------------------------------------------------------------------------------------|
E |-----------------------------------------------------------------------------------------|
B |--------------------------------------------------0--------------------------------------|
F#|-0-0--0-0---0-0---0-0--0-0----0-0-0-0-0-0---1--4--0--------------------------------------|
B |-0-0--0-0---0-0---0-0--0-0----0-0-0-0-0-0---1--4--0--------------------------------------|



************************************

| x  Dead note
| h  Hammer-on
| p  Pull-off

************************************

            
            
Suggest correction
Creating personal tab
Creating personal tab
You can edit any tab online and save it as your Personal.

You can edit, replace or remove any tab part or add personal notes – all changes will be seen only by you.

Personal tabs can be accessed anytime from any device, even offline.
Learn more »
comments
print report bad tab
guest
You may want to rate the tab now too:
select rating
Wanna post a correction for this tab? Suggest correction