Oops, an error
Loading. Please wait.

Bad Vibrations tab

version 2
version 2

Whole song

Interactive

1,540 views 15 this week
1 commentread comment
1 2 3 4 5
x 3
add to favorites
×
Save as Personal and add changes to this tab that will be seen only by you. Learn more ›
×
You can save this tab as Personal to edit and correct it or add notes. All changes will be seen only by you. Learn more »
launch autoscroll
font size
0
reset
how to read this tab
guitar tuner
edit
Autoscroll
slow
fast
+/-
esc
set tempo
stop
[Intro]

Both Guitars:
C#|------------------------------------------------------|
G#|--------------11--------------------------------------|
E |--------------14--------------------------------------|
B |----------------------------------------1----------4--|
F#|-0-0-0-0--0-0----0-0-0-0---0-0-0-0--0-0-1--0-0-0-0-4--|
B |-0-0-0-0--0-0----0-0-0-0---0-0-0-0--0-0-1--0-0-0-0-4--|
pm  . . . .  . .    . . . .   . . . .  . .    . . . .

C#|-----------------------------------------------------------|
G#|--------------11-------------------------------------------|
E |--------------14-------------------------------------------|
B |--------------------------8-8--8-8--8-8--5-5--5-5--5-5-----|
F#|-0-0-0-0--0-0----0-0-0-0--8-8--8-8--8-8--5-5--5-5--5-5-----|
B |-0-0-0-0--0-0----0-0-0-0--8-8--8-8--8-8--5-5--5-5--5-5-----|
pm  . . . .  . .    . . . .

Guitar 1:
C#|------------------------------------------------------|
G#|--------------11--------------------------------------|
E |--------------14--------------------------------------|
B |----------------------------------------1----------4--|
F#|-0-0-0-0--0-0----0-0-0-0---0-0-0-0--0-0-1--0-0-0-0-4--|
B |-0-0-0-0--0-0----0-0-0-0---0-0-0-0--0-0-1--0-0-0-0-4--|
pm  . . . .  . .    . . . .   . . . .  . .    . . . .

C#|---------------------------------------------------------------|
G#|---------------11----------------------------------------------|
E |---------------14----------------------------------------------|
B |---------------------------5-5--5-5--5-5--11-11--11-11--11-11--|
F#|-0-0--0-0--0-0----0-0-0-0--5-5--5-5--5-5--11-11--11-11--11-11--|
B |-0-0--0-0--0-0----0-0-0-0--5-5--5-5--5-5--11-11--11-11--11-11--|
pm  . .  . .  . .    . . . .

Guitar 2:
C#|-----------------------------------------------------------|
G#|-------10~-----------------------10~-----------------------|
E |-----------10~---9~--------9-10-------10~---9~--------9~---|
B |----------------------7~-------------------------8~--------|
F#|-----------------------------------------------------------|
B |-----------------------------------------------------------|


[Verse 1]


Guitar 1:
C#|---------------------------------------------------------------------|
G#|-3-3-3-3-3-3-3-3-3-3-3-3-3-3-3-3-3-3-3-3-3-3-3-3---8-8-8-8-8-8-8-8---|
E |-2-2-2-2-2-2-2-2-2-2-2-2-2-2-2-2-2-2-2-2-2-2-2-2---7-7-7-7-7-7-7-7---|
B |-0-0-0-0-0-0-0-0-0-0-0-0-0-0-0-0-0-0-0-0-0-0-0-0---0-0-0-0-0-0-0-0---|
F#|---------------------------------------------------------------------|
B |---------------------------------------------------------------------|

C#|------------------------------------------------------------------------------|
G#|-11-11-11-11-11-11-11-11-11-11-11-11-11-11-11-11---10-10-10-10-10-10-10-10----|
E |-10-10-10-10-10-10-10-10-10-10-10-10-10-10-10-10---9--9--9--9--9--9--9--9-----|
B |-0--0--0--0--0--0--0--0--0--0--0--0--0--0--0--0----0--0--0--0--0--0--0--0-----|
F#|------------------------------------------------------------------------------|
B |------------------------------------------------------------------------------|

C#|---------------------------------------------------------------------|
G#|-3-3-3-3-3-3-3-3-3-3-3-3-3-3-3-3-3-3-3-3-3-3-3-3---8-8-8-8-8-8-8-8---|
E |-2-2-2-2-2-2-2-2-2-2-2-2-2-2-2-2-2-2-2-2-2-2-2-2---7-7-7-7-7-7-7-7---|
B |-0-0-0-0-0-0-0-0-0-0-0-0-0-0-0-0-0-0-0-0-0-0-0-0---0-0-0-0-0-0-0-0---|
F#|---------------------------------------------------------------------|
B |---------------------------------------------------------------------|


C#|------------------------------------------------------------------------------|
G#|-11-11-11-11-11-11-11-11-11-11-11-11-11-11-11-11---10-10-10-10-10-10-10-10----|
E |-10-10-10-10-10-10-10-10-10-10-10-10-10-10-10-10---9--9--9--9--9--9--9--9-----|
B |-0--0--0--0--0--0--0--0--0--0--0--0--0--0--0--0----0--0--0--0--0--0--0--0-----|
F#|------------------------------------------------------------------------------|
B |------------------------------------------------------------------------------|

Guitar 2:
C#|-------------------------------------------------------------------------------------------|
G#|-------------------------------------------------------------------------------------------|
E |-------------------------------------------------------------------------------------------|
B |-12-12-12-12-12-12-12-12-12-12-12-12-12-12-12-12-12-12-12-12-12-12-12-12---5-5-5-5-5-5-5-5-|
F#|-12-12-12-12-12-12-12-12-12-12-12-12-12-12-12-12-12-12-12-12-12-12-12-12---5-5-5-5-5-5-5-5-|
B |-12-12-12-12-12-12-12-12-12-12-12-12-12-12-12-12-12-12-12-12-12-12-12-12---5-5-5-5-5-5-5-5-|

C#|-------------------------------------------------------------|
G#|-------------------------------------------------------------|
E |-------------------------------------------------------------|
B |-8-8-8-8-8-8-8-8-8-8-8-8-8-8-8-8---11-11-11-11-11-11-11-11---|
F#|-8-8-8-8-8-8-8-8-8-8-8-8-8-8-8-8---11-11-11-11-11-11-11-11---|
B |-8-8-8-8-8-8-8-8-8-8-8-8-8-8-8-8---11-11-11-11-11-11-11-11---|

C#|-------------------------------------------------------------------------------------------|
G#|-------------------------------------------------------------------------------------------|
E |-------------------------------------------------------------------------------------------|
B |-12-12-12-12-12-12-12-12-12-12-12-12-12-12-12-12-12-12-12-12-12-12-12-12---5-5-5-5-5-5-5-5-|
F#|-12-12-12-12-12-12-12-12-12-12-12-12-12-12-12-12-12-12-12-12-12-12-12-12---5-5-5-5-5-5-5-5-|
B |-12-12-12-12-12-12-12-12-12-12-12-12-12-12-12-12-12-12-12-12-12-12-12-12---5-5-5-5-5-5-5-5-|

C#|-----------------------------------------------------|
G#|-----------------------------------------------------|
E |-----------------------------------------------------|
B |-8-8-8-8-8-8-8-8-8-8-8-8-8-8-8-8---7-7-7-7-7-7-7-7---|
F#|-8-8-8-8-8-8-8-8-8-8-8-8-8-8-8-8---7-7-7-7-7-7-7-7---|
B |-8-8-8-8-8-8-8-8-8-8-8-8-8-8-8-8---7-7-7-7-7-7-7-7---|


[Prechorus]


Guitar 1:
C#|-----------------------------------------------------------|
G#|-----------------------------------------------------------|
E |-----------------------------------------------------------|
B |-----------------------------------------------------------|
F#|---------5-----------5-----------------8-----------8-7-7-7-|
B |-8-8-8-8---8-8-8-8-8----8-8-8--5-5-5-5---5-5-5-5-5---------|
pm  . . . .   . . . . .           . . . .   . . . . .

C#|---------------------------------------------------------------|
G#|---------------------------------------------------------------|
E |---------------------------------------------------------------|
B |------------------------------------------------5-7-5----------|
F#|---------8-----------8-7-7-7----------8-----7-8-------8-7-8----|
B |-0-0-0-0---0-0-0-0-0----------3-3-3-3---3-3--------------------|
pm  . . . .   . . . . .          . . . .   . .

C#|---------------------------------------------------|
G#|---------------------------------------------------|
E |---------------------------------------------------|
B |-----------------------------------------8-8-7-7---|
F#|---------5-----------5-------------8-----8-8-7-7---|
B |-8-8-8-8---8-8-8-8-8----8--5-5-5-5---5-5-8-8-7-7---|
pm  . . . .   . . . . .       . . . .   . . 

Guitar 2:
C#|---------------------------------------------------------------------------------------------------|
G#|---------------------------------------------------------------------------------------------------|
E |-14-14-14-14-14-14-14-14-14-14-14-14-14-14-14-14--12-12-12-12-12-12-12-12--17-17-17-17-17-17-17-17-| 
B |-12-12-12-12-12-12-12-12-12-12-12-12-12-12-12-12--12-12-12-12-12-12-12-12--12-12-12-12-12-12-12-12-|
F#|---------------------------------------------------------------------------------------------------|
B |---------------------------------------------------------------------------------------------------|

C#|--------------------------------------------------------------------------------------------------|
G#|--------------------------------------------------------------------------------------------------|
E |-14-14-14-14-14-14-14-14-14-14-14-14-14-14-14-14--12-12-12-12-12-12-12-12-12-12-12-12-12-12-12-12-| 
B |-12-12-12-12-12-12-12-12-12-12-12-12-12-12-12-12--12-12-12-12-12-12-12-12-12-12-12-12-12-12-12-12-|
F#|--------------------------------------------------------------------------------------------------|
B |--------------------------------------------------------------------------------------------------|

C#|-------------------------------------------------------------------------------------|
G#|-------------------------------------------------------------------------------------|
E |-14-14-14-14-14-14-14-14-14-14-14-14-14-14-14-14--12-12-12-12-12-12-12-12--10-10-9-9-| 
B |-12-12-12-12-12-12-12-12-12-12-12-12-12-12-12-12--12-12-12-12-12-12-12-12--x--x--x-x-|
F#|---------------------------------------------------------------------------8--8--7-7-|
B |-------------------------------------------------------------------------------------|


[Chorus 1]


Guitar 1:
C#|-----------------------------------------------------------------------|
G#|-----------------------------------------------------------------------|
E |-----------------------------------------------------------------------|
B |-8-8-8-8-8-8-8-8-8-8-8-8-8-8-8-8---0-0-0-0-0-0-0-0---3-3-3-3-3-3-3-3---| 
F#|-8-8-8-8-8-8-8-8-8-8-8-8-8-8-8-8---0-0-0-0-0-0-0-0---3-3-3-3-3-3-3-3---|
B |-8-8-8-8-8-8-8-8-8-8-8-8-8-8-8-8---0-0-0-0-0-0-0-0---3-3-3-3-3-3-3-3---|

C#|-------------------------------------------------------------------------------|
G#|-------------------------------------------------------------------------------|
E |-------------------------------------------------------------------------------|
B |-8-8-8-8-8-8-8-8-8-8-8-8-8-8-8-8---0-0-0-0-0-0-0-0---10-10-10-10-10-10-10-10---| 
F#|-8-8-8-8-8-8-8-8-8-8-8-8-8-8-8-8---0-0-0-0-0-0-0-0---10-10-10-10-10-10-10-10---|
B |-8-8-8-8-8-8-8-8-8-8-8-8-8-8-8-8---0-0-0-0-0-0-0-0---10-10-10-10-10-10-10-10---|

Guitar 2:
C#|-------------------------------------------------------------------------------|
G#|-------------------------------------------------------------------------------|
E |-7-7-7-7-7-7-7-7-7-7-7-7--17-17-17-17--14-14-14-14-14-14--12-12-12-12-12-12----|
B |-x-x-x-x-x-x-x-x-x-x-x-x--x--x--x--x---x--x--x--x--x--x---x--x--x--x--x--x-----| 
F#|-5-5-5-5-5-5-5-5-5-5-5-5--15-15-15-15--12-12-12-12-12-12--10-10-10-10-10-10----|
B |-------------------------------------------------------------------------------|

C#|-------------------------------------------------------------------------------|
G#|-------------------------------------------------------------------------------|
E |-7-7-7-7-7-7-7-7-7-7-7-7--17-17-17-17--14-14-14-14-14-14--12-12-12-12-12-12----|
B |-x-x-x-x-x-x-x-x-x-x-x-x--x--x--x--x---x--x--x--x--x--x---x--x--x--x--x--x-----| 
F#|-5-5-5-5-5-5-5-5-5-5-5-5--15-15-15-15--12-12-12-12-12-12--10-10-10-10-10-10----|
B |-------------------------------------------------------------------------------|



[Post Chorus]


C#|------------------------------------|
G#|-3-3-3-3-3-3-3-3-3-3-3-3-3-3-3-3----|
E |-2-2-2-2-2-2-2-2-2-2-2-2-2-2-2-2----|
B |-0-0-0-0-0-0-0-0-0-0-0-0-0-0-0-0----|
F#|------------------------------------|
B |------------------------------------|


[Verse 2]


Guitar 1:
C#|---------------------------------------------------------------------|
G#|-3-3-3-3-3-3-3-3-3-3-3-3-3-3-3-3-3-3-3-3-3-3-3-3---8-8-8-8-8-8-8-8---|
E |-2-2-2-2-2-2-2-2-2-2-2-2-2-2-2-2-2-2-2-2-2-2-2-2---7-7-7-7-7-7-7-7---|
B |-0-0-0-0-0-0-0-0-0-0-0-0-0-0-0-0-0-0-0-0-0-0-0-0---0-0-0-0-0-0-0-0---|
F#|---------------------------------------------------------------------|
B |---------------------------------------------------------------------|

C#|------------------------------------------------------------------------------|
G#|-11-11-11-11-11-11-11-11-11-11-11-11-11-11-11-11---10-10-10-10-10-10-10-10----|
E |-10-10-10-10-10-10-10-10-10-10-10-10-10-10-10-10---9--9--9--9--9--9--9--9-----|
B |-0--0--0--0--0--0--0--0--0--0--0--0--0--0--0--0----0--0--0--0--0--0--0--0-----|
F#|------------------------------------------------------------------------------|
B |------------------------------------------------------------------------------|

C#|---------------------------------------------------------------------|
G#|-3-3-3-3-3-3-3-3-3-3-3-3-3-3-3-3-3-3-3-3-3-3-3-3---8-8-8-8-8-8-8-8---|
E |-2-2-2-2-2-2-2-2-2-2-2-2-2-2-2-2-2-2-2-2-2-2-2-2---7-7-7-7-7-7-7-7---|
B |-0-0-0-0-0-0-0-0-0-0-0-0-0-0-0-0-0-0-0-0-0-0-0-0---0-0-0-0-0-0-0-0---|
F#|---------------------------------------------------------------------|
B |---------------------------------------------------------------------|

C#|-------------------------------------------------------------|
G#|-11-11-11-11-11-11-11-11-11-11-11-11-11-11-11-11---11--10----|
E |-10-10-10-10-10-10-10-10-10-10-10-10-10-10-10-10---10--9-----|
B |-0--0--0--0--0--0--0--0--0--0--0--0--0--0--0--0----0---0-----|
F#|-------------------------------------------------------------|
B |-------------------------------------------------------------|

Guitar 2:
C#|---------|
G#|---------|
E |--7~-----|
B |--x------|
F#|--5~-----|
B |---------|

C#|---------------------------------------------------------------------------|
G#|---------------------------------------------------------------------------|
E |---------------------------------------------------------------------------|
B |---------------------------------------------------------------------------|
F#|---------------------------------------------------------------------------|
B |--0-0-0--0-0----0-0-0--0-0----5-5-5--5-5---8-8-8--8-8--8-8-8--8-8---8-7----|
pm   . . .         . . .         . . .        . . .       . . . 


[Prechorus]


Guitar 1:
C#|-----------------------------------------------------------|
G#|-----------------------------------------------------------|
E |-----------------------------------------------------------|
B |-----------------------------------------------------------|
F#|---------5-----------5-----------------8-----------8-7-7-7-|
B |-8-8-8-8---8-8-8-8-8----8-8-8--5-5-5-5---5-5-5-5-5---------|
pm  . . . .   . . . . .           . . . .   . . . . .

C#|---------------------------------------------------------------|
G#|---------------------------------------------------------------|
E |---------------------------------------------------------------|
B |------------------------------------------------5-7-5----------|
F#|---------8-----------8-7-7-7----------8-----7-8-------8-7-8----|
B |-0-0-0-0---0-0-0-0-0----------3-3-3-3---3-3--------------------|
pm  . . . .   . . . . .          . . . .   . .

C#|---------------------------------------------------|
G#|---------------------------------------------------|
E |---------------------------------------------------|
B |-----------------------------------------8-8-7-7---|
F#|---------5-----------5-------------8-----8-8-7-7---|
B |-8-8-8-8---8-8-8-8-8----8--5-5-5-5---5-5-8-8-7-7---|
pm  . . . .   . . . . .       . . . .   . . 

Guitar 2:
C#|---------------------------------------------------------------------------------------------------|
G#|---------------------------------------------------------------------------------------------------|
E |-14-14-14-14-14-14-14-14-14-14-14-14-14-14-14-14--12-12-12-12-12-12-12-12--17-17-17-17-17-17-17-17-| 
B |-12-12-12-12-12-12-12-12-12-12-12-12-12-12-12-12--12-12-12-12-12-12-12-12--12-12-12-12-12-12-12-12-|
F#|---------------------------------------------------------------------------------------------------|
B |---------------------------------------------------------------------------------------------------|

C#|--------------------------------------------------------------------------------------------------|
G#|--------------------------------------------------------------------------------------------------|
E |-14-14-14-14-14-14-14-14-14-14-14-14-14-14-14-14--12-12-12-12-12-12-12-12-12-12-12-12-12-12-12-12-| 
B |-12-12-12-12-12-12-12-12-12-12-12-12-12-12-12-12--12-12-12-12-12-12-12-12-12-12-12-12-12-12-12-12-|
F#|--------------------------------------------------------------------------------------------------|
B |--------------------------------------------------------------------------------------------------|

C#|-------------------------------------------------------------------------------------|
G#|-------------------------------------------------------------------------------------|
E |-14-14-14-14-14-14-14-14-14-14-14-14-14-14-14-14--12-12-12-12-12-12-12-12--10-10-9-9-| 
B |-12-12-12-12-12-12-12-12-12-12-12-12-12-12-12-12--12-12-12-12-12-12-12-12--x--x--x-x-|
F#|---------------------------------------------------------------------------8--8--7-7-|
B |-------------------------------------------------------------------------------------|


[Chorus 2]


Guitar 1:
C#|-----------------------------------------------------------------------------------|
G#|-----------------------------------------------------------------------------------|
E |-----------------------------------------------------------------------------------|
B |-8-8-8-8-8-8-8-8---10-10-10-10---12-12-12-12---0-0-0-0-0-0-0-0---3-3-3-3-3-3-3-3---|
F#|-8-8-8-8-8-8-8-8---10-10-10-10---12-12-12-12---0-0-0-0-0-0-0-0---3-3-3-3-3-3-3-3---|
B |-8-8-8-8-8-8-8-8---10-10-10-10---12-12-12-12---0-0-0-0-0-0-0-0---3-3-3-3-3-3-3-3---|

C#|-------------------------------------------------------------------------------|
G#|-------------------------------------------------------------------------------|
E |-------------------------------------------------------------------------------|
B |-8-8-8-8-8-8-8-8-8-8-8-8-8-8-8-8---0-0-0-0-0-0-0-0---10-10-10-10-10-10-10-10---| 
F#|-8-8-8-8-8-8-8-8-8-8-8-8-8-8-8-8---0-0-0-0-0-0-0-0---10-10-10-10-10-10-10-10---|
B |-8-8-8-8-8-8-8-8-8-8-8-8-8-8-8-8---0-0-0-0-0-0-0-0---10-10-10-10-10-10-10-10---|

C#|------------------------------------------------------------------------------|
G#|------------------------------------------------------------------------------|
E |------------------------------------------------------------------------------|
B |--------8-----x-x-x-x---8-8-8-8-8-8-8-8---0-0-0-0-0-0-0-0---3-3-3-3-3-3-3-3---|
F#|------8---8---x-x-x-x---8-8-8-8-8-8-8-8---0-0-0-0-0-0-0-0---3-3-3-3-3-3-3-3---|
B |----8-------8-x-x-x-x---8-8-8-8-8-8-8-8---0-0-0-0-0-0-0-0---3-3-3-3-3-3-3-3---|

C#|-------------------------------------------------------------------------------|
G#|-------------------------------------------------------------------------------|
E |-------------------------------------------------------------------------------|
B |-8-8-8-8-8-8-8-8-8-8-8-8-8-8-8-8---0-0-0-0-0-0-0-0---10-10-10-10-10-10-10-10---| 
F#|-8-8-8-8-8-8-8-8-8-8-8-8-8-8-8-8---0-0-0-0-0-0-0-0---10-10-10-10-10-10-10-10---|
B |-8-8-8-8-8-8-8-8-8-8-8-8-8-8-8-8---0-0-0-0-0-0-0-0---10-10-10-10-10-10-10-10---|

Guitar 2:
C#|-------------------------------------------------------------------------------|
G#|-------------------------------------------------------------------------------|
E |-7-7-7-7-7-7-7-7-7-7-7-7--17-17-17-17--14-14-14-14-14-14--12-12-12-12-12-12----|
B |-x-x-x-x-x-x-x-x-x-x-x-x--x--x--x--x---x--x--x--x--x--x---x--x--x--x--x--x-----| 
F#|-5-5-5-5-5-5-5-5-5-5-5-5--15-15-15-15--12-12-12-12-12-12--10-10-10-10-10-10----|
B |-------------------------------------------------------------------------------|

C#|-------------------------------------------------------------------------------|
G#|-------------------------------------------------------------------------------|
E |-7-7-7-7-7-7-7-7-7-7-7-7--17-17-17-17--14-14-14-14-14-14--12-12-12-12-12-12----|
B |-x-x-x-x-x-x-x-x-x-x-x-x--x--x--x--x---x--x--x--x--x--x---x--x--x--x--x--x-----| 
F#|-5-5-5-5-5-5-5-5-5-5-5-5--15-15-15-15--12-12-12-12-12-12--10-10-10-10-10-10----|
B |-------------------------------------------------------------------------------|

C#|------------------------------------------------------------------------------|
G#|------------------------------------------------------------------------------|
E |----------------7-7-7-7--17-17-17-17--14-14-14-14-14-14--12-12-12-12-12-12----|
B |-------x-x-x-x--x-x-x-x--x--x--x--x---x--x--x--x--x--x---x--x--x--x--x--x-----| 
F#|-------x-x-x-x--5-5-5-5--15-15-15-15--12-12-12-12-12-12--10-10-10-10-10-10----|
B |-------x-x-x-x----------------------------------------------------------------|

C#|-------------------------------------------------------------------------------|
G#|-------------------------------------------------------------------------------|
E |-7-7-7-7-7-7-7-7-7-7-7-7--17-17-17-17--14-14-14-14-14-14--12-12-12-12-12-12----|
B |-x-x-x-x-x-x-x-x-x-x-x-x--x--x--x--x---x--x--x--x--x--x---x--x--x--x--x--x-----| 
F#|-5-5-5-5-5-5-5-5-5-5-5-5--15-15-15-15--12-12-12-12-12-12--10-10-10-10-10-10----|
B |-------------------------------------------------------------------------------|


[Bridge]


Guitar 1:
C#|---------------------------------------------------------|
G#|-4-4---4-4---4-4-4-4---4-4---4-4-4-4----4-4-4-4-4-4-4-4--|
E |-7-7---7-7---7-7-7-7---7-7---7-7-7-7----7-7-7-7-7-7-7-7--| x4
B |---------------------------------------------------------|
F#|---------------------------------------------------------|
B |---------------------------------------------------------|

Guitar 2:
C#|-------------------------|
G#|-------------------------|
E |-7~-------------7--------|
B |-x-------0~-----x--------| 
F#|-5~------0~-----5~-------|
B |---------0~--------------|

C#|----------------------------------------------------|
G#|----------------------------------------------------|
E |----------------------------------------------------|
B |----------------------------------------------------|
F#|--0-0---0-0---0-0-0-0---0-0---0-0-0-0-----0----0----|
B |--0-0---0-0---0-0-0-0---0-0---0-0-0-0-----0----0----|
pm   . .   . .   . . . .   . .   . . . .     .    .

[Breakdown]


Guitar 1:
C#|---------------------------------------------------------|
G#|-4-4---4-4---4-4-4-4---4-4-4-4---4-4----4-4-4-4-4-4-4-4--|
E |-7-7---7-7---7-7-7-7---7-7-7-7---7-7----7-7-7-7-7-7-7-7--| 
B |---------------------------------------------------------|
F#|---------------------------------------------------------|
B |---------------------------------------------------------|

Guitar 2:
C#|-------------------------------------------------------------------------|
G#|-------------------------------------------------------------------------|
E |-------------------------------------------------------------------------|
B |-------------------------------------------------------------------------|
F#|-----0-0--0-0---0-0--0-0--0-0-----0-0--0-0---0-0--0-0--0-0---0-0--0-0----|
B |-----0-0--0-0---0-0--0-0--0-0-----0-0--0-0---0-0--0-0--0-0---0-0--0-0-1--|
pm      . .  . .   . .  . .  . .     . .  . .   . .  . .  . .   . .  . . 

C#|------------------------------------------------|
G#|------------------------------------------------|
E |------------------------------------------------|
B |------------------------------------------------|
F#|-----0-0--0-0---0-0--0-0---0-0--0-0---0-0---0---|
B |-----0-0--0-0---0-0--0-0---0-0--0-0---0-0---0---|
pm      . .  . .   . .  . .   . .  . .   . .   .

Both Guitars:
C#|-----------------------------------------------------------------------------------------------|
G#|-----------------------------------------------------------------------------------------------|
E |-----------------------------------------------------------------------------------------------|
B |-----------------------------------------------------------------------------------------------|
F#|-----------------------------------------------------------------------------------------------|
B |-12h13p12p0-12p0-12h13p12p0-12p0--10h12p10p0--12h13p12p0-12p0-12h13p12p0-12p0--10h13p10p0------|

C#|--------------------------------------------------------------------------------------------------|
G#|--------------------------------------------------------------------------------------------------|
E |--------------------------------------------------------------------------------------------------|
B |----------------------------------------------------------------------4----1----------------------|
F#|----------------------------------------------------------------------4----1----------------------|
B |-12h13p12p0-12p0-12h13p12p0-12p0--10h12p10p0--12h13p12p0-12p0-10h12---4----1----------------------|


[Outro]


Guitar 1:
C#|---------------------------------------------------------|
G#|-4-4---4-4---4-4-4-4---4-4-4-4---4-4----4-4-4-4-4-4-4-4--|
E |-7-7---7-7---7-7-7-7---7-7-7-7---7-7----7-7-7-7-7-7-7-7--| 
B |---------------------------------------------------------|
F#|---------------------------------------------------------|
B |---------------------------------------------------------|

Guitar 2:
C#|--------------------------------------------------------------------|
G#|--------------------------------------------------------------------|
E |--------------------------------------------------------------------|
B |--------------------------------------------------------------------|
F#|-----0-0--0-0---0-0--0-0--0-0-----0-0--0-0---0-0--0-0--0-0----------|
B |-----0-0--0-0---0-0--0-0--0-0-----0-0--0-0---0-0--0-0--0-0----------|
pm      . .  . .   . .  . .  . .     . .  . .   . .  . .  . . 

Guitar 3:
C#|------------------------------------------------------------------------------|
G#|-16-16---16-16---16-16-16-16---16-16-16-16---16-16---16-16-16-16-16-16-16-16--|
E |-19-19---19-19---19-19-19-19---19-19-19-19---19-19---19-19-19-19-19-19-19-19--| 
B |------------------------------------------------------------------------------|
F#|------------------------------------------------------------------------------|
B |------------------------------------------------------------------------------|

All Guitars:
C#|----------|
G#|----------|
E |----------|
B |--4/0~----|
F#|--4/0~----|
B |--4/0~----|

p: pull off
h: hammer on
x: dead note
pm: palm mute
Suggest correction
Creating personal tab
Creating personal tab
You can edit any tab online and save it as your Personal.

You can edit, replace or remove any tab part or add personal notes – all changes will be seen only by you.

Personal tabs can be accessed anytime from any device, even offline.
Learn more »
Give kudos to tab author, rate the tab!
1 2 3 4 5
comments
print report bad tab
1 comment total.
0 reply
cameronjlapp 181 Jul 16, 2016 07:27 PM

added guitar 2 parts in pre chorus and chorus

guest
You may want to rate the tab now too:
select rating
Wanna post a correction for this tab? Suggest correction