Oops, an error
Loading. Please wait.

Bad Vibrations Tab

version 3
version 3

Whole song

Interactive

61 views 1 this week
no commentswrite comment
1 2 3 4 5
2 more votes to show rating
add to favorites
launch autoscroll
font size
0
reset
how to read this tab
guitar tuner
Autoscroll
slow
fast
+/-
esc
set tempo
stop
Help us to improve Ultimate-Guitar.com Take our survey!
×
Author
Difficulty
Tuning
intermediate
B F# B E G# C#
[Bad Vibrations]
[Bad Vibrations]
[A Day To Remember]

Tuning: B Gb B E Ab Db
Playthrough: https://www.youtube.com/watch?v=xB7KUECtQwE

[Ra Ra Ra] - [00:00] - [00:22]

[Riff 1] - [00:22] - [00:36]
- -----------------------------------------------------------------
- ---------10------------------------------10----------------------
- ---------7-------------------------------7-----------------------
- ---------8---------------1-----4---------8-------8888-88-8888-88-
- -0000-00---0000--0000-00-1-00004-0000-00---0000--5555-55-5555-55-
- -0000-00---0000--0000-00-1-00004-0000-00---0000--8888-88-5555-55-

- ------------------------------------------------------------------
- ---------10------------------------------10-----------------------
- ---------7-------------------------------7---------------66666666-
- ---------8---------------1-----4---------8-------8888-88-77777777-
- -0000-00---0000--0000-00-1-00004-0000-00---0000--5555-55-44444444-
- -0000-00---0000--0000-00-1-00004-0000-00---0000--5555-55----------

[Riff 2] - [00:29] - [00:36]
- -----------------------------------------------------------------
- -10------------------------------10------------------------------
- -------10----------------------10------10------------------------
- -------------14--------------14--------------14------------------
- -------------------12----------------------------13------12------
- -----------------------------------------------------------------


[Riff 3, Guitar 1 & 2] - [00:36] - [00:52]
- -----------------------------------------------------------------
- -------------------------8-------11----------------------10------
- -7(x24)------------------7(x8)---7-(x24)-----------------7-(x8)--
- -----------------------------------------------------------------
- -----------------------------------------------------------------
- -----------------------------------------------------------------
-
- -----------------------------------------------------------------
- -----------------------------------------------------------------
- -7(x24)------------------7(x8)---10(x24)-----------------6(x8)---
- -x-----------------------x-------x-----------------------6-------
- -5-----------------------5-------8-----------------------4-------
- -0-----------------------5-------8-------------------------------


- -----------------------------------------------------------------
- -------------------------8-------11----------------------10------
- -7(x24)------------------7(x8)---7-(x24)-----------------7-(x8)--
- -----------------------------------------------------------------
- -----------------------------------------------------------------
- -----------------------------------------------------------------
-
- -----------------------------------------------------------------
- -----------------------------------------------------------------
- -7(x24)------------------7(x8)---10(x24)-----------------9(x8)---
- -x-----------------------x-------x-----------------------x-------
- -5-----------------------5-------8-----------------------7-------
- -0-----------------------5-------8-----------------------7-------


[Riff 4] - [00:52] - [01:03]
- -----------------------------------------------------------------
- -----------------------------------------------------------------
- -----------------------------------------------------------------
- -----------------------------------------------------------------
- -------5---------------5---------------8---------------8---7-7-7-
- -8-8-8---8-8-8-8-8-8-8---8-8-8-8-5-5-5---5-5-5-5-5-5-5---5-------
PM .....   .............   .       .....   .............   .

- ------------------------------------------------------------------
- ------------------------------------------------------------------
- --------------------------------------------------------2---------
- ----------------------------------------3-------3-2h3h5---5p3p2h3-
- -------8---------------8---7-7-7----------------------------------
- -0-0-0---0-0-0-0-0-0-0---0-------3-3-3----3-3-3-------------------
PM .....   .............   .       .....    .....

- -----------------------------------------------------------------
- -----------------------------------------------------------------
- -----------------------------------------------------------------
- -----------------------------------------------------------------
- -------5---------------5---------------8---------8---8---7---7---
- -8-8-8---8-8-8-8-8-8-8---8-8-8-8-5-5-5---5-5-5-5-5---5---5---5---
PM .....   .............   .       .....   .......


[Riff 5, Guitar 1 & 2] - [01:03] - [01:19]
- -----------------------------------------------------------------
- -15--15--15--15--15--18--17--15--15--15--13--13--18--18--17------
- -x---x---x---x---x---x---x---x---x---x---x---x---x---x---x-------
- -12--12--12--12--12--15--14--12--12--12--10--10--15--15--14------
- -----------------------------------------------------------------
- -----------------------------------------------------------------
-
- -----------------------------------------------------------------
- -----------------------------------------------------------------
- -----------------------------------------------------------------
- -8---8---8---8---8---8---8---8---8---8---8---8---8---8---8---8---
- -5---5---5---5---5---5---5---5---5---5---5---5---5---5---5---5---
- -8---8---8---8---8---8---8---8---8---8---8---8---8---8---8---8---


- -----------------------------------------------------------------
- -15--15--15--15--17--18--17--20----------18--17--17--18--15------
- -x---x---x---x---x---x---x---x-----------x---x---x---x---x-------
- -12--12--12--12--14--15--14--17----------15--14--14--15--12------
- -----------------------------------------------------------------
- -----------------------------------------------------------------
-
- -----------------------------------------------------------------
- -----------------------------------------------------------------
- -----------------------------------------------------------------
- -0---0---0---0---0---0---0---0---0---3---3---3---3---3---3---3---
- -0---0---0---0---0---0---0---0---0---3---3---3---3---3---3---3---
- -0---0---0---0---0---0---0---0---0---3---3---3---3---3---3---3---


- -----------------------------------------------------------------
- -15--15--15--15--15--18--17--15--15--15--13--13--18--18--17------
- -x---x---x---x---x---x---x---x---x---x---x---x---x---x---x-------
- -12--12--12--12--12--15--14--12--12--12--10--10--15--15--14------
- -----------------------------------------------------------------
- -----------------------------------------------------------------
-
- -----------------------------------------------------------------
- -----------------------------------------------------------------
- -----------------------------------------------------------------
- -8---8---8---8---8---8---8---8---8---8---8---8---8---8---8---8---
- -5---5---5---5---5---5---5---5---5---5---5---5---5---5---5---5---
- -8---8---8---8---8---8---8---8---8---8---8---8---8---8---8---8---


- -17--17--17------------------------------------------------------
- -x---x---x---18--18--18--20--20------17--17--17--17--18--18--18--
- -14--14--14--x---x---x---x---x-------x---x---x---x---x---x---x---
- -------------15--15--15--17--17------14--14--14--14--15--15--15--
- -----------------------------------------------------------------
- -----------------------------------------------------------------
-
- -----------------------------------------------------------------
- -----------------------------------------------------------------
- -----------------------------------------------------------------
- -12--12--12--12--12--12--12--12--12--10--10--10--10--10--10--10--
- -12--12--12--12--12--12--12--12--12--10--10--10--10--10--10--10--
- -12--12--12--12--12--12--12--12--12--10--10--10--10--10--10--10--


- ---------------------------------
- -15------------------------------
- -x-------------------------------
- -12------------------------------
- ---------------------------------
- ---------------------------------
-
- ---------------------------------
- ---------------------------------
- -7-7-7-7-7-7-7-7-7-7-7-7-7-7-7-7-
- -x-x-x-x-x-x-x-x-x-x-x-x-x-x-x-x-
- -5-5-5-5-5-5-5-5-5-5-5-5-5-5-5-5-
- ---------------------------------


[Riff 6, Guitar 1 & 2] - [01:19] - [01:35]
- -----------------------------------------------------------------
- -------------------------8-------11----------------------10------
- -7(x24)------------------7(x8)---7-(x24)-----------------7-(x8)--
- -----------------------------------------------------------------
- -----------------------------------------------------------------
- -----------------------------------------------------------------
-
- -----------------------------------------------------------------
- -----------------------------------------------------------------
- -7---------------------------------------------------------------
- -x---------------------------------------------------------------
- -5---------------------------------------------------------------
- -----------------------------------------------------------------


- -----------------------------------------------------------------
- -------------------------8-------11----------------------11--10\-
- -7(x24)------------------7(x8)---7-(x24)-----------------7---7-\-
- -----------------------------------------------------------------
- -----------------------------------------------------------------
- -----------------------------------------------------------------
-
- -----------------------------------------------------------------
- -----------------------------------------------------------------
- -----------------------------------------------------------------
- -----------------------------------------------------------------
- -----------------------------------------------------------------
- -000000----------000000--555555--888888----------888888--8---7\--
PM ... .           ... .   ... .   ... .           ... .


[Riff 4] - [01:35] - [01:46]

[Riff 7, Guitar 1 & 2] - [01:46] - [02:!6]
- -----------------------------------------------------------------
- -15--15--15--15--15--18--17--15--15--15--13--13--18--18--17------
- -x---x---x---x---x---x---x---x---x---x---x---x---x---x---x-------
- -12--12--12--12--12--15--14--12--12--12--10--10--15--15--14------
- -----------------------------------------------------------------
- -----------------------------------------------------------------
-
- -----------------------------------------------------------------
- -----------------------------------------------------------------
- -----------------------------------------------------------------
- -8---8---8---8---8---8---8---8---8---8---8---8---8---8---8---8---
- -5---5---5---5---5---5---5---5---5---5---5---5---5---5---5---5---
- -8---8---8---8---8---8---8---8---8---8---8---8---8---8---8---8---


- -----------------------------------------------------------------
- -15--15--15--15--17--18--17--20----------18--17--17--18--15------
- -x---x---x---x---x---x---x---x-----------x---x---x---x---x-------
- -12--12--12--12--14--15--14--17----------15--14--14--15--12------
- -----------------------------------------------------------------
- -----------------------------------------------------------------
-
- -----------------------------------------------------------------
- -----------------------------------------------------------------
- -----------------------------------------------------------------
- -0---0---0---0---0---0---0---0---0---3---3---3---3---3---3---3---
- -0---0---0---0---0---0---0---0---0---3---3---3---3---3---3---3---
- -0---0---0---0---0---0---0---0---0---3---3---3---3---3---3---3---


- -----------------------------------------------------------------
- -15--15--15--15--15--18--17--15--15--15--13--13--18--18--17------
- -x---x---x---x---x---x---x---x---x---x---x---x---x---x---x-------
- -12--12--12--12--12--15--14--12--12--12--10--10--15--15--14------
- -----------------------------------------------------------------
- -----------------------------------------------------------------
-
- -----------------------------------------------------------------
- -----------------------------------------------------------------
- -----------------------------------------------------------------
- -8---8---8---8---8---8---8---8---8---8---8---8---8---8---8---8---
- -5---5---5---5---5---5---5---5---5---5---5---5---5---5---5---5---
- -8---8---8---8---8---8---8---8---8---8---8---8---8---8---8---8---


- -17--17--17------------------------------------------------------
- -x---x---x---18--18--18--20--20------17--17--17--17--18--18--18--
- -14--14--14--x---x---x---x---x-------x---x---x---x---x---x---x---
- -------------15--15--15--17--17------14--14--14--14--15--15--15--
- -----------------------------------------------------------------
- -----------------------------------------------------------------
-
- -----------------------------------------------------------------
- -----------------------------------------------------------------
- -----------------------------------------------------------------
- -12--12--12--12--12--12--12--12--12--10--10--10--10--10--10--10--
- -12--12--12--12--12--12--12--12--12--10--10--10--10--10--10--10--
- -12--12--12--12--12--12--12--12--12--10--10--10--10--10--10--10--


- -----------------------------------------------------------------
- ---------------------------------15--15--13--13--18--18--17------
- ---------------------------------x---x---x---x---x---x---x-------
- ---------------------------------12--12--10--10--15--15--14------
- -----------------------------------------------------------------
- -----------------------------------------------------------------
-
- -----------------------------------------------------------------
- -----------------------------------------------------------------
- -----------------------------------------------------------------
- -------------8---8---x---x---x---8---8---8---8---8---8---8---8---
- -----5---5---5---5---x---x---x---5---5---5---5---5---5---5---5---
- -8---8---8---8---8---x---x---x---8---8---8---8---8---8---8---8---


- -----------------------------------------------------------------
- -15--15--15--15--17--18--17--20----------18--17--17--18--15------
- -x---x---x---x---x---x---x---x-----------x---x---x---x---x-------
- -12--12--12--12--14--15--14--17----------15--14--14--15--12------
- -----------------------------------------------------------------
- -----------------------------------------------------------------
-
- -----------------------------------------------------------------
- -----------------------------------------------------------------
- -----------------------------------------------------------------
- -0---0---0---0---0---0---0---0---0---3---3---3---3---3---3---3---
- -0---0---0---0---0---0---0---0---0---3---3---3---3---3---3---3---
- -0---0---0---0---0---0---0---0---0---3---3---3---3---3---3---3---


- -----------------------------------------------------------------
- -15--15--15--15--15--18--17--15--15--15--13--13--18--18--17------
- -x---x---x---x---x---x---x---x---x---x---x---x---x---x---x-------
- -12--12--12--12--12--15--14--12--12--12--10--10--15--15--14------
- -----------------------------------------------------------------
- -----------------------------------------------------------------
-
- -----------------------------------------------------------------
- -----------------------------------------------------------------
- -----------------------------------------------------------------
- -8---8---8---8---8---8---8---8---8---8---8---8---8---8---8---8---
- -5---5---5---5---5---5---5---5---5---5---5---5---5---5---5---5---
- -8---8---8---8---8---8---8---8---8---8---8---8---8---8---8---8---


- -17--17--17------------------------------------------------------
- -x---x---x---18--18--18--20--20------17--17--17--17--18--18--18--
- -14--14--14--x---x---x---x---x-------x---x---x---x---x---x---x---
- -------------15--15--15--17--17------14--14--14--14--15--15--15--
- -----------------------------------------------------------------
- -----------------------------------------------------------------
-
- -----------------------------------------------------------------
- -----------------------------------------------------------------
- -----------------------------------------------------------------
- -12--12--12--12--12--12--12--12--12--10--10--10--10--10--10--10--
- -12--12--12--12--12--12--12--12--12--10--10--10--10--10--10--10--
- -12--12--12--12--12--12--12--12--12--10--10--10--10--10--10--10--


- ---------
- -4------- 
- -7---8--- you can play the next parts with either of these notes. i personally play it on the lower strings
- -----12-- but for the sake of of keeping this tab clean and aligned I'm going to tab it on the high strings
- ---------
- ---------


[Riff 8, Guitar 1 & 2] - [02:16] - [02:31]
- ------------------------------------------------------------------
- -44--44--4444--44--4444--4444444444--44--4444--44--4444--44444444-
- -77--77--7777--77--7777--7777777777--77--7777--77--7777--77777777-
- ------------------------------------------------------------------
- ------------------------------------------------------------------
- ------------------------------------------------------------------
-
- ------------------------------------------------------------------
- ------------------------------------------------------------------
- ------------------------------------------------------------------
- -0-------------------------------0--------------------------------
- -0-------------------------------0--------------------------------
- -0-------------------------------0--------------------------------


- ------------------------------------------------------------------
- -44--44--4444--44--4444--4444444444--44--4444--44--4444--44444444-
- -77--77--7777--77--7777--7777777777--77--7777--77--7777--77777777-
- ------------------------------------------------------------------
- ------------------------------------------------------------------
- ------------------------------------------------------------------
-
- ------------------------------------------------------------------
- -[6]-------------whammy bar---------------------------------------
- -[6]----------------down------------------------------------------
- ------------------------------------------------------------------
- ---------------------------------00--00--0000--00--0000--0---0----
- ---------------------------------00--00--0000--00--0000--0---0----
PM                                 ................................


[Riff 9, Guitar 1 & 2] - [02:31] - [
- ------------------------------------------------------------------
- -44--44--4444--4444--44--4444444444--44--4444--4444--44--44444444-
- -77--77--7777--7777--77--7777777777--77--7777--7777--77--77777777-
- ------------------------------------------------------------------
- ------------------------------------------------------------------
- ------------------------------------------------------------------
-
- ------------------------------------------------------------------
- ------------------------------------------------------------------
- ------------------------------------------------------------------
- ------------------------------------------------------------------
- ---00--00----00----00--00----------00--00----00----00--00---------
- ---00--00----00----00--00----------00--00----00----00--00---------
PM ................................................................


- ------------------------------------------------------------------
- -44--44--4444--4444--44--4444444444--44--4444--4444--44--44444444-
- -77--77--7777--7777--77--7777777777--77--7777--7777--77--77777777-
- ------------------------------------------------------------------
- ------------------------------------------------------------------
- ------------------------------------------------------------------
-
- ------------------------------------------------------------------
- ---------------------------------------------------third guitar---
- -------------------------------------------------pick scrape down-
- ------------------------------------------------------------------
- ---00--00----00----00--00----------00--00----00----00--00---------
- ---00--001br-00----00--00----------00--00----00----00--00---------
PM ................................................................


[Riff 10] - [02:46] - [02:53]
- ---------------------------------------------------------------------------------------
- ---------------------------------------------------------------------------------------
- ---------------------------------------------------------------------------------------
- ---------------------------------------------------------------------------------------
- ---------------------------------------------------------------------------------------
- -12h13p12p0-12p0-12h13p12p0-12p0-10h12p10p0-12h13p12p0-12p0-12h13p12p0-12p0-10h13p10p0-

- -----------------------------------------------------------------------------------
- -----------------------------------------------------------------------------------
- -----------------------------------------------------------------------------------
- ------------------------------------------------------------------4-------1--------
- ------------------------------------------------------------------4-------1--------
- -12h13p12p0-12p0-12h13p12p0-12p0-10h12p10p0-12h13p12p0-12p0-12h13-4-------1--------


[Riff 11, Guitar 1 & 2] - [02:53] - [03:29]
- ------------------------------------------------------------------                - -11-
- -44--44--4444--4444--44--4444444444--44--4444--4444--44--44444444- harmonize with - -14-
- -77--77--7777--7777--77--7777777777--77--7777--7777--77--77777777- this note      - ----
- ------------------------------------------------------------------                - ----
- ------------------------------------------------------------------ same pattern   - ----
- ------------------------------------------------------------------                - ----
-
- ----------------------------------------------------------------------------------
- ----------------------------------------------------------------------------------
- ----------------------------------------------------------------------------------
- ---------------------------------------------------------1/--13\--0~--------------
- ---00--00----00----00--00----------00--00----00----00--001/--13\--0~--------------
- ---00--00----00----00--00----------00--00----00----00--001/--13\--0~--------------
PM ........................................................


[Symbols]

PM... Palm Mute notes with (...) under them
AP... Alternate Pick notes with (...) under them
h     Hammer On
p     Pull Off
[ ]   Harmonic
/     Slide Up
\     Slide Down
x     Dead Note
b     Bend
p     Pre-Bend
r     Release Bend
(x )  Play Notes x amount of times
~     Let Ring
/ 3 \ Notes are triplets (3 notes in the space of two)
w\    Whammy Bar Down
w/    Whammy Bar Up
T     Right Hand Tap

:)
Suggest correction
Give kudos to tab author, rate the tab!
1 2 3 4 5
comments
print report bad tab
guest
You may want to rate the tab now too:
select rating
Wanna post a correction for this tab? Suggest correction