Oops, an error
Loading. Please wait.

Bullfight Bass Tab

349 views 18 this week
no commentswrite comment
1 2 3 4 5
2 more votes to show rating
add to favorites
launch autoscroll
font size
0
reset
guitar tuner
Autoscroll
slow
fast
+/-
esc
set tempo
stop
Help us to improve Ultimate-Guitar.com Take our survey!
×
Author
Difficulty
Tuning
intermediate
C G C F A D
A Day To Remember - Bullfight

Tabbed by: Ash (XxThreeCheersxX)
email: burdickash@gmail.com

Verse I
F|--------------------------------------------------------------------------------------------------------|
C|--------------------------------------------------------------------------------------------------------|
G|--------------------------------------------------------------------------------------------------------|
C|-0-0-0-0x----------------8-8-8-8x----------------5-5-5-5x---------------7-7-7-7-7-7-7-7-7-7-7-7-7-7-7-7-|

Pre-Chorus
F|-----------------------------------------------------------------|
C|-----------------------------------------------------------------|
G|---------------------------------5-5-5-5-5-5-5-5-----------------| x 3
C|-8-8-8-8-8-8-8-8-8-8-8-8-8-8-8-8-----------------7-7-7-7-7-7-7-7-|

F|-----------------------------------------------------------------|
C|-----------------------------------------------------------------|
G|-----------------------------------------------------------------|
C|-8-8-8-8-8-8-8-8-8-8-8-8-8-8-8-8-7~------------------------------|

Chorus x 2
F|-----------------------------------------------------------------|
C|-----------------------------------------------------------------|
G|-----------------------------------------------------------------|
C|-0-0-0-0-0-0-0-0-0-0-0-0-0-0-0-0-0-0-0-0-0-0-0-0-0-0-0-0-0-0-0-0-|

F|-----------------------------------------------------------------|
C|-----------------------------------------------------------------|
G|-----------------------------------------------------------------|
C|-8-8-8-8-8-8-8-8-8-8-8-8-8-8-8-8-8-8-8-8-8-8-8-8-7-7-7-7-7-7-7-7-|

Post-Chorus Riff
F|---------------------------------|
C|---------------------------------|
G|---3h5-3h5------3h5-3h5----------| x 3
C|-00-----------00-----------0--0--|

F|-----------------------------------|
C|-----------------------------------|
G|-----------------------------------|
C|-88-7h8-7h8----88-7h8-7h8----7--7--|

Verse II
F|-----------------------------------------------------------------|
C|-----------------------------------------------------------------|
G|-----------------------------------------------------------------|
C|-0-0-0-0-0-0-0-0-0-0-0-0-0-0-0-0-8-8-8-8-8-8-8-8-8-8-8-8-8-8-8-8-|

F|-----------------------------------------------------------------|
C|-----------------------------------------------------------------|
G|-----------------------------------------------------------------|
C|-5-5-5-5-5-5-5-5-5-5-5-5-5-5-5-5-7-7-7-7-7-7-7-7-7-7-7-7-7-7-7-7-|

F|---------------------------------------------------------------------------------------------|
C|---------------------------------------------------------------------------------------------|
G|---------------------------------------------------------------------------------------------|
C|-0-0-0-0--0-0-0--0-0-0--0-0-0-0--0-0-0--0-0-0--8-8-8-8--8-8-8--8-8-8--8-8-8-8--8-8-8--8-8-8--|

F|---------------------------------------------------------------------------------------------|
C|---------------------------------------------------------------------------------------------|
G|---------------------------------------------------------------------------------------------|
C|-5-5-5-5--5-5-5--5-5-5--5-5-5-5--5-5-5--5-5-5--7-7-7-7--7-7-7--7-7-7--7-7-7-7--7-7-7--7-7-7--|

Pre-Chorus II
F|-----------------------------------------------------------------|
C|-----------------------------------------------------------------|
G|---------------------------------5-5-5-5-5-5-5-5-----------------| x 2
C|-8-8-8-8-8-8-8-8-8-8-8-8-8-8-8-8-----------------7-7-7-7-7-7-7-7-|

F|-----------------------------------------------------------------|
C|-----------------------------------------------------------------|
G|---------------------------------5-5-5-5-5-5-5-5-----------------| 
C|-----8-8-8-8-8-8-8-8-8-8-8-8-8-8-----------------7-7-7-7-7-7-7-7-|

F|-----------------------------------------------------------------|
C|-8-8-8-8-8-8-8-8-8-8-8-8-8-8-8-8---------------------------------|
G|-----------------------------------------------------------------|
C|---------------------------------7~------------------------------|

Chorus II x 2
F|-----------------------------------------------------------------|
C|-----------------------------------------------------------------|
G|-----------------------------------------------------------------|
C|-0-0-0-0-0-0-0-0-0-0-0-0-0-0-0-0-0-0-0-0-0-0-0-0-0-0-0-0-0-0-0-0-|

F|-----------------------------------------------------------------|
C|-----------------------------------------------------------------|
G|-------------------------------------------------7-----7-----7---|
C|-8-8-8-8-8-8-8-8-8-8-8-8-8-8-8-8-8-8-8-8-8-8-8-8---7-7---7-7---7-|

Post-Chorus Riff II
F|---------------------------------|
C|---------------------------------|
G|---3h5-3h5------3h5-3h5----------| 
C|-00-----------00-----------0--0--|

F|---------------------------------|
C|---------------------------------|
G|---3h5-3h5------5-3-0------------| 
C|-00-----------00------0----0--0--|

F|-----------------------------------|
C|-----------------------------------|
G|-----------------------------------|
C|-88-7h8-7h8----88-7h8-7h8----7--7--|

Bridge
F|-------------------------|
C|-------------------------|
G|-5--5--5--5--5--5--5--5--| x 6
C|-------------------------|

Breakdown
F|--------------------------------------------------------------------------------|
C|--------------------------------------------------------------------------------|
G|-----------------------------------------------------------------------4--4--4--| x 2
C|-0-0-0-0--0-0-0-0-0-0-0-0-0-0--0-0-0-7-7-7-0-0-0-0--0-0-0-0-0-0--0--0-----------|

F|-----------------------------------------------------------------------------|
C|-----------------------------------------------------------------------------|
G|-----------------------------------------------------------------------------|
C|-8-8-8-8--8-8-8-8-8-8-8-8-8-8--8-8-8-8-8-8-8-8-8-8--8-8-8-8-8-8--8-8-8-8-8-8-|

F|--------------------------------------------------------------------------------|
C|--------------------------------------------------------------------------------|
G|-----------------------------------------------------------------------4--4--4--| 
C|-0-0-0-0--0-0-0-0-0-0-0-0-0-0--0-0-0-7-7-7-0-0-0-0--0-0-0-0-0-0--0--0-----------|

Final Pre-Chorus
F|---------------------------------------------------------------------------|
C|---------------------------------------------------------------------------|
G|---------------------------------------------------------------------------|
C|-8-8-8-8-8-8-8-8-8-8-8-8-8-8-8-8-10-10x------------------------------------|

Final Chorus x 2
F|-----------------------------------------------------------------|
C|-----------------------------------------------------------------|
G|-----------------------------------------------------------------|
C|-0-0-0-0-0-0-0-0-0-0-0-0-0-0-0-0-0-0-0-0-0-0-0-0-0-0-0-0-0-0-0-0-|

F|-----------------------------------------------------------------|
C|-----------------------------------------------------------------|
G|-------------------------------------------------7-----7-----7---|
C|-8-8-8-8-8-8-8-8-8-8-8-8-8-8-8-8-8-8-8-8-8-8-8-8---7-7---7-7---7-|

Final Post-Chorus Riff 
F|---------------------------------|
C|---------------------------------|
G|---3h5-3h5------3h5-3h5----------| 
C|-00-----------00-----------0--0--|

F|---------------------------------|
C|---------------------------------|
G|---3h5-3h5------5-3-0------------| 
C|-00-----------00------0----0--0--|

F|-------------------------------------------------------------|
C|-------------------------------------------------------------|
G|----------------------------------------------0-5~-----------|
C|-88-7h8-7h8----88-7-7~--------------------0-4----------------|


Happy playing!


************************************

| x   Dead note
| g   Grace note
| (n) Ghost note
| h   Hammer-on
| p   Pull-off
| r   Release
| >   Accented note
| t   Tapping
| b   Bend
| br  Bend release
| pb  Pre-bend
| pbr Pre-bend release
| /   Slide up
| \   Slide down
| ~   Vibrato
| s   Slap
| P   Pop
| PM  Palm mute
| TR  Trill
| N   Tremolo

************************************
Suggest correction
Give kudos to tab author, rate the tab!
1 2 3 4 5
comments
print report bad tab
guest
You may want to rate the tab now too:
select rating
Wanna post a correction for this tab? Suggest correction