Oops, an error
Loading. Please wait.

Bullfight tab

10,244 views 90 this week
6 commentsread comments
1 2 3 4 5
x 13
add to favorites
×
Save as Personal and add changes to this tab that will be seen only by you. Learn more ›
×
You can save this tab as Personal to edit and correct it or add notes. All changes will be seen only by you. Learn more »
launch autoscroll
font size
0
reset
how to read this tab
guitar tuner
edit
Autoscroll
slow
fast
+/-
esc
set tempo
stop
[Intro]


Guitar 2:
d|----------------------------|
A|-6--6--6--6--6--6--6--6-----|
F|-7--7--7--7--7--7--7--7-----|
C|-7--7--7--7--7--7--7--7-----|
G|----------------------------|
C|----------------------------|


[Verse 1]


Guitar 1:
d|------------------------------------------------------|
A|----------------------5~--------8~---------8--------5-|
F|-----------7~-----7---------7---------7--------6------|
C|-------7--------8---8-----8---8-----5---5----5---5----|
G|-----5---5--------------------------------------------|
C|------------------------------------------------------|

d|------------------------------------------------------|
A|----------------------5~--------8~---------8--------5-|
F|-----------7~-----7---------7---------7--------6------|
C|-------7--------8---8-----8---8-----5---5----5---5----|
G|-----5---5--------------------------------------------|
C|------------------------------------------------------|

Guitar 2:
d|-------------------------------------------------------------------------------------------------|
A|-6--6--6--6--6--6--6--6--6--6--6--6--6--6--6--6--6--6--6--6--6--6--6--6--6--6--6--6--5--5--5--5--|
F|-7--7--7--7--7--7--7--7--7--7--7--7--7--7--7--7--7--7--7--7--7--7--7--7--7--7--7--7--6--6--6--6--|
C|-7--7--7--7--7--7--7--7--7--7--7--7--7--7--7--7--7--7--7--7--7--7--7--7--7--7--7--7--7--7--7--7--|
G|-------------------------------------------------------------------------------------------------|
C|-------------------------------------------------------------------------------------------------|

d|-------------------------------------------------------------------------------------------------|
A|-6--6--6--6--6--6--6--6--6--6--6--6--6--6--6--6--6--6--6--6--6--6--6--6--6--6--6--6--5--5--5--5--|
F|-7--7--7--7--7--7--7--7--7--7--7--7--7--7--7--7--7--7--7--7--7--7--7--7--7--7--7--7--6--6--6--6--|
C|-7--7--7--7--7--7--7--7--7--7--7--7--7--7--7--7--7--7--7--7--7--7--7--7--7--7--7--7--7--7--7--7--|
G|-------------------------------------------------------------------------------------------------|
C|-------------------------------------------------------------------------------------------------|


[PRE CHORUS 1]


Guitar 1:
d|-----------------------------------------------------------------------------------------------------------|
A|-----------------------------------------------------------------------------------------------------------|
F|-7-7-7-7-7-7-7-7-7-7-7-7--9/10-9-7-9/10-9-7--5/7--7--7-7-7-7-7-7-7-7-7-7-7-7--9/10-9--7--9/10-9--7--5/7--7-|
C|-x-x-x-x-x-x-x-x-x-x-x-x--x/x--x-x-x/x--x-x--x/x--x--x-x-x-x-x-x-x-x-x-x-x-x--x/x--x--x--x/x--x--x--x/x--x-|
G|-5-5-5-5-5-5-5-5-5-5-5-5--7/8--7-5-7/8--7-5--3/5--5--5-5-5-5-5-5-5-5-5-5-5-5--7/8--7--5--7/8--7--5--3/5--5-|
C|-----------------------------------------------------------------------------------------------------------|

d|-------------------------------------------------------------------------------------------------|
A|-------------------------------------------------------------------------------------------------|
F|-7-7-7-7-7-7-7-7-7-7-7-7--9/10-9--7--9/10-9--7--5/7--7--7-7-7-7-7-7-7-7-7-7-7-7--6~--14-12-------|
C|-x-x-x-x-x-x-x-x-x-x-x-x--x/x--x--x--x/x--x--x--x/x--x--x-x-x-x-x-x-x-x-x-x-x-x--x---------15-14-|
G|-5-5-5-5-5-5-5-5-5-5-5-5--7/8--7--5--7/8--7--5--3/5--5--5-5-5-5-5-5-5-5-5-5-5-5--4~--------------|
C|-------------------------------------------------------------------------------------------------|

Guitar 3 (Harmony on third time through, may just be the top note of the chord only): 
d|--------------------------------------------------------------------------|
A|--------------------------------------------------------------------------|
F|-10-10-10-10-10-10-10-10-10-10-10-10--12/14--12--10-12/14--12--10-9/10-10-|
C|-x--x--x--x--x--x--x--x--x--x--x--x---x-/x---x---x--x-/x---x---x--x/x--x--|
G|-8--8--8--8--8--8--8--8--8--8--8--8---10/12--10--8--10/12--10--8--7/8--8--|
C|--------------------------------------------------------------------------|

d|-------------------------------------------------------|
A|-------------------------------------------------------|
F|-10-10-10-10-10-10-10-10-10-10-10-10--9~---------------|
C|-x--x--x--x--x--x--x--x--x--x--x--x---x~---15-14-------|
G|-8--8--8--8--8--8--8--8--8--8--8--8---7~---------17-16-|
C|-------------------------------------------------------|

Guitar 2:
d|---------------------------------------------------------------------------|
A|---------------------------------------------------------------------------|
F|---------------------------------------------------------------------------|
C|-8-8-8-8-8-8-8-8-8-8-8-8-8-8-8-8--12-12-12-12-12-12-12-12--7-7-7-7-7-7-7-7-|  
G|-8-8-8-8-8-8-8-8-8-8-8-8-8-8-8-8--12-12-12-12-12-12-12-12--7-7-7-7-7-7-7-7-|
C|-8-8-8-8-8-8-8-8-8-8-8-8-8-8-8-8--12-12-12-12-12-12-12-12--7-7-7-7-7-7-7-7-|

d|---------------------------------------------------------------------------|
A|---------------------------------------------------------------------------|
F|---------------------------------------------------------------------------|
C|-8-8-8-8-8-8-8-8-8-8-8-8-8-8-8-8--12-12-12-12-12-12-12-12--7-7-7-7-7-7-7-7-|  
G|-8-8-8-8-8-8-8-8-8-8-8-8-8-8-8-8--12-12-12-12-12-12-12-12--7-7-7-7-7-7-7-7-|
C|-8-8-8-8-8-8-8-8-8-8-8-8-8-8-8-8--12-12-12-12-12-12-12-12--7-7-7-7-7-7-7-7-|

d|---------------------------------------------------------------------------|
A|---------------------------------------------------------------------------|
F|---------------------------------------------------------------------------|
C|-8-8-8-8-8-8-8-8-8-8-8-8-8-8-8-8--12-12-12-12-12-12-12-12--7-7-7-7-7-7-7-7-|  
G|-8-8-8-8-8-8-8-8-8-8-8-8-8-8-8-8--12-12-12-12-12-12-12-12--7-7-7-7-7-7-7-7-|
C|-8-8-8-8-8-8-8-8-8-8-8-8-8-8-8-8--12-12-12-12-12-12-12-12--7-7-7-7-7-7-7-7-|

d|-----------------------------------------------|
A|-----------------------------------------------|
F|-----------------------------------------------|
C|-8-8-8-8-8-8-8-8-8-8-8-8-8-8-8-8---7~----------|  
G|-8-8-8-8-8-8-8-8-8-8-8-8-8-8-8-8---7~----------|
C|-8-8-8-8-8-8-8-8-8-8-8-8-8-8-8-8---7~----------|


[Chorus 1]


Guitar 1:
d|------------------------------------------------------------|
A|--------5-------------5--------------5--------------5-------|
F|----7-----7---7---7-----7----7---7-----7---7----7-----7---7-|
C|--7---7-----7---7---7-----7----7---7-----7----7---7-----7---|
G|------------------------------------------------------------|
C|------------------------------------------------------------|

d|------------------------------------------------------------|
A|--------5-------------5-------------5--------------5--------|
F|----7-----7---7---7-----7---7---7-----7---7----6-----6---6--|
C|--8---8-----8---8---8-----8---8---8-----8----7---7-----7----|
G|------------------------------------------------------------|
C|------------------------------------------------------------|

d|------------------------------------------------------------|
A|--------5-------------5--------------5--------------5-------|
F|----7-----7---7---7-----7----7---7-----7---7----7-----7---7-|
C|--7---7-----7---7---7-----7----7---7-----7----7---7-----7---|
G|------------------------------------------------------------|
C|------------------------------------------------------------|

d|------------------------------------------------------------|
A|--------5-------------5-------------5--------------5--------|
F|----7-----7---7---7-----7---7---7-----7---7----6-----6---6--|
C|--8---8-----8---8---8-----8---8---8-----8----7---7-----7----|
G|------------------------------------------------------------|
C|------------------------------------------------------------|

Guitar 2:
d|-----------------------------------------------------------------|
A|-----------------------------------------------------------------|
F|-----------------------------------------------------------------|
C|-0-0-0-0-0-0-0-0-0-0-0-0-0-0-0-0-0-0-0-0-0-0-0-0-0-0-0-0-0-0-0-0-|
G|-0-0-0-0-0-0-0-0-0-0-0-0-0-0-0-0-0-0-0-0-0-0-0-0-0-0-0-0-0-0-0-0-|
C|-0-0-0-0-0-0-0-0-0-0-0-0-0-0-0-0-0-0-0-0-0-0-0-0-0-0-0-0-0-0-0-0-|

d|------------------------------------------------------------------|
A|------------------------------------------------------------------|
F|------------------------------------------------------------------|
C|-8-8-8-8-8-8-8-8-8-8-8-8-8-8-8-8-8-8-8-8-8-8-8-8--7-7-7-7-7-7-7-7-|
G|-8-8-8-8-8-8-8-8-8-8-8-8-8-8-8-8-8-8-8-8-8-8-8-8--7-7-7-7-7-7-7-7-|
C|-8-8-8-8-8-8-8-8-8-8-8-8-8-8-8-8-8-8-8-8-8-8-8-8--7-7-7-7-7-7-7-7-|

d|-----------------------------------------------------------------|
A|-----------------------------------------------------------------|
F|-----------------------------------------------------------------|
C|-0-0-0-0-0-0-0-0-0-0-0-0-0-0-0-0-0-0-0-0-0-0-0-0-0-0-0-0-0-0-0-0-|
G|-0-0-0-0-0-0-0-0-0-0-0-0-0-0-0-0-0-0-0-0-0-0-0-0-0-0-0-0-0-0-0-0-|
C|-0-0-0-0-0-0-0-0-0-0-0-0-0-0-0-0-0-0-0-0-0-0-0-0-0-0-0-0-0-0-0-0-|

d|------------------------------------------------------------------|
A|------------------------------------------------------------------|
F|------------------------------------------------------------------|
C|-8-8-8-8-8-8-8-8-8-8-8-8-8-8-8-8-8-8-8-8-8-8-8-8--7-7-7-7-7-7-7-7-|
G|-8-8-8-8-8-8-8-8-8-8-8-8-8-8-8-8-8-8-8-8-8-8-8-8--7-7-7-7-7-7-7-7-|
C|-8-8-8-8-8-8-8-8-8-8-8-8-8-8-8-8-8-8-8-8-8-8-8-8--7-7-7-7-7-7-7-7-|


[Post-Chorus]


Both Guitars:
d|------------------------------------------------------------------------------------|
A|------------------------------------------------------------------------------------|
F|------------------------------------------------------------------------------------|
C|------10h12-0--0--------10h12-0--0---0--0-------10h12-0--0--------10h12-0--0---0--0-|
G|-0-0--10h12-0--0---0-0--10h12-0--0---0--0--0-0--10h12-0--0---0-0--10h12-0--0---0--0-|
C|-0-0--10h12-0--0---0-0--10h12-0--0---0--0--0-0--10h12-0--0---0-0--10h12-0--0---0--0-|
pm . .               . .                     . .               . .    

d|----------------------------------------------------------------------------|
A|----------------------------------------------------------------------------|
F|----------------------------------------------------------------------------|
C|------10h12-0--0--------10h12-0--0---0--0-------7h8-8-8-------7h8-8-8--7--7-|
G|-0-0--10h12-0--0---0-0--10h12-0--0---0--0--8-8--7h8-8-8--8-8--7h8-8-8--7--7-|
C|-0-0--10h12-0--0---0-0--10h12-0--0---0--0--8-8--7h8-8-8--8-8--7h8-8-8--7--7-|
pm . .               . .                     . .           . . 


[Verse 2]


Guitar 2:
d|----------------------------|
A|-6--6--6--6--6--6--6--6-----|
F|-7--7--7--7--7--7--7--7-----|
C|-7--7--7--7--7--7--7--7-----|
G|----------------------------|
C|----------------------------|

Guitar 1:
d|------------------------------------------------------|
A|----------------------5~--------8~---------8--------5-|
F|-----------7~-----7---------7---------7--------6------|
C|-------7--------8---8-----8---8-----5---5----5---5----|
G|-----5---5--------------------------------------------|
C|------------------------------------------------------|

d|----------------------------------------------------------------|
A|-----------------------------------------5--------------5-------|
F|--------7--------------7-------------7-----7---7----7-----7---7-|
C|----7-----7---7----7-----7---7-----8---8-----8----8---8-----8---|
G|--5---5-----5----5---5-----5------------------------------------|
C|----------------------------------------------------------------|

d|------------------------------------------------------------|
A|--------8-------------8-------------8--------------5--------|
F|----7-----7---7---7-----7---7---7-----7---7----6-----6---6--|
C|--8---8-----8---8---8-----8---5---5-----5----5---5-----5----|
G|------------------------------------------------------------|
C|------------------------------------------------------------|

Guitar 2:
d|-------------------------------------------------------------------|
A|-------------------------------------------------------------------|
F|-------------------------------------------------------------------|
C|-------------------------------------------------------------------|
G|-0-0-0-0-0-0-0-0-0-0-0-0-0-0-0-0--8-8-8-8-8-8-8-8-8-8-8-8-8-8-8-8--|
C|-0-0-0-0-0-0-0-0-0-0-0-0-0-0-0-0--8-8-8-8-8-8-8-8-8-8-8-8-8-8-8-8--|
pm . . . . . . . . . . . . . . . .  . . . . . . . . . . . . . . . . 

d|-------------------------------------------------------------------|
A|-------------------------------------------------------------------|
F|-------------------------------------------------------------------|
C|-------------------------------------------------------------------|
G|-5-5-5-5-5-5-5-5-5-5-5-5-5-5-5-5--7-7-7-7-7-7-7-7-7-7-7-7-7-7-7-7--|
C|-5-5-5-5-5-5-5-5-5-5-5-5-5-5-5-5--7-7-7-7-7-7-7-7-7-7-7-7-7-7-7-7--|
pm . . . . . . . . . . . . . . . .  . . . . . . . . . . . . . . . . 

d|----------------------------------------------------------------------------------------------------|
A|----------------------------------------------------------------------------------------------------|
F|----------------------------------------------------------------------------------------------------|
C|-----0-0------0-0------0------0-0------0-0------0------8-8------8-8------8------8-8------8-8------8-|
G|-0-0-0-0--0-0-0-0--0-0-0--0-0-0-0--0-0-0-0--0-0-0--8-8-8-8--8-8-8-8--8-8-8--8-8-8-8--8-8-8-8--8-8-8-|
C|-0-0-0-0--0-0-0-0--0-0-0--0-0-0-0--0-0-0-0--0-0-0--8-8-8-8--8-8-8-8--8-8-8--8-8-8-8--8-8-8-8--8-8-8-|
pm . .      . .      . .    . .      . .      . .    . .      . .      . .    . .      . .      . . 

d|----------------------------------------------------------------------------------------------------|
A|----------------------------------------------------------------------------------------------------|
F|----------------------------------------------------------------------------------------------------|
C|-----5-5------5-5------5------5-5------5-5------5------7-7------7-7------7------7-7------7-7------7-|
G|-5-5-5-5--5-5-5-5--5-5-5--5-5-5-5--5-5-5-5--5-5-5--7-7-7-7--7-7-7-7--7-7-7--7-7-7-7--7-7-7-7--7-7-7-|
C|-5-5-5-5--5-5-5-5--5-5-5--5-5-5-5--5-5-5-5--5-5-5--7-7-7-7--7-7-7-7--7-7-7--7-7-7-7--7-7-7-7--7-7-7-|
pm . .      . .      . .    . .      . .      . .    . .      . .      . .    . .      . .      . . 



[Pre-Chorus]

Guitar 1:
d|-----------------------------------------------------------------------------------------------------------|
A|-----------------------------------------------------------------------------------------------------------|
F|-7-7-7-7-7-7-7-7-7-7-7-7--9/10-9-7-9/10-9-7--5/7--7--7-7-7-7-7-7-7-7-7-7-7-7--9/10-9--7--9/10-9--7--5/7--x-|
C|-x-x-x-x-x-x-x-x-x-x-x-x--x/x--x-x-x/x--x-x--x/x--x--x-x-x-x-x-x-x-x-x-x-x-x--x/x--x--x--x/x--x--x--x/x--x-|
G|-5-5-5-5-5-5-5-5-5-5-5-5--7/8--7-5-7/8--7-5--3/5--5--5-5-5-5-5-5-5-5-5-5-5-5--7/8--7--5--7/8--7--5--3/5--x-|
C|-----------------------------------------------------------------------------------------------------------|

d|-------------------------------------------------------------------------------------------------|
A|-------------------------------------------------------------------------------------------------|
F|-7-7-7-7-7-7-7-7-7-7-7-7--9/10-9--7--9/10-9--7--5/7--7--7-7-7-7-7-7-7-7-7-7-7-7--6~--14-12-------|
C|-x-x-x-x-x-x-x-x-x-x-x-x--x/x--x--x--x/x--x--x--x/x--x--x-x-x-x-x-x-x-x-x-x-x-x--x---------15-14-|
G|-5-5-5-5-5-5-5-5-5-5-5-5--7/8--7--5--7/8--7--5--3/5--5--5-5-5-5-5-5-5-5-5-5-5-5--4~--------------|
C|-------------------------------------------------------------------------------------------------|

Guitar 3 (Harmony on third time through, may just be the top note of the chord only): 
d|--------------------------------------------------------------------------|
A|--------------------------------------------------------------------------|
F|-10-10-10-10-10-10-10-10-10-10-10-10--12/14--12--10-12/14--12--10-9/10-10-|
C|-x--x--x--x--x--x--x--x--x--x--x--x---x-/x---x---x--x-/x---x---x--x/x--x--|
G|-8--8--8--8--8--8--8--8--8--8--8--8---10/12--10--8--10/12--10--8--7/8--8--|
C|--------------------------------------------------------------------------|

d|-------------------------------------------------------|
A|-------------------------------------------------------|
F|-10-10-10-10-10-10-10-10-10-10-10-10--9~---------------|
C|-x--x--x--x--x--x--x--x--x--x--x--x---x~---15-14-------|
G|-8--8--8--8--8--8--8--8--8--8--8--8---7~---------17-16-|
C|-------------------------------------------------------|


Guitar 2:
d|---------------------------------------------------------------------------|
A|---------------------------------------------------------------------------|
F|---------------------------------------------------------------------------|
C|-8-8-8-8-8-8-8-8-8-8-8-8-8-8-8-8--12-12-12-12-12-12-12-12--7-7-7-7-7-7-7-7-|  
G|-8-8-8-8-8-8-8-8-8-8-8-8-8-8-8-8--12-12-12-12-12-12-12-12--7-7-7-7-7-7-7-7-|
C|-8-8-8-8-8-8-8-8-8-8-8-8-8-8-8-8--12-12-12-12-12-12-12-12--7-7-7-7-7-7-7-7-|

d|---------------------------------------------------------------------------|
A|---------------------------------------------------------------------------|
F|---------------------------------------------------------------------------|
C|-8-8-8-8-8-8-8-8-8-8-8-8-8-8-8-8--12-12-12-12-12-12-12-12--7-7-7-7-7-7-7-x-|  
G|-8-8-8-8-8-8-8-8-8-8-8-8-8-8-8-8--12-12-12-12-12-12-12-12--7-7-7-7-7-7-7-x-|
C|-8-8-8-8-8-8-8-8-8-8-8-8-8-8-8-8--12-12-12-12-12-12-12-12--7-7-7-7-7-7-7-x-|

d|---------------------------------------------------------------------------|
A|---------------------------------------------------------------------------|
F|---------------------------------------------------------------------------|
C|-8-8-8-8-8-8-8-8-8-8-8-8-8-8-8-8--12-12-12-12-12-12-12-12--7-7-7-7-7-7-7-7-|  
G|-8-8-8-8-8-8-8-8-8-8-8-8-8-8-8-8--12-12-12-12-12-12-12-12--7-7-7-7-7-7-7-7-|
C|-8-8-8-8-8-8-8-8-8-8-8-8-8-8-8-8--12-12-12-12-12-12-12-12--7-7-7-7-7-7-7-7-|

d|-----------------------------------------------|
A|-----------------------------------------------|
F|-----------------------------------------------|
C|-8-8-8-8-8-8-8-8-8-8-8-8-8-8-8-8---7~----------|  
G|-8-8-8-8-8-8-8-8-8-8-8-8-8-8-8-8---7~----------|
C|-8-8-8-8-8-8-8-8-8-8-8-8-8-8-8-8---7~----------|


[Chorus 2]

Guitar 1:
d|------------------------------------------------------------|
A|--------5-------------5--------------5--------------5-------|
F|----7-----7---7---7-----7----7---7-----7---7----7-----7---7-|
C|--7---7-----7---7---7-----7----7---7-----7----7---7-----7---|
G|------------------------------------------------------------|
C|------------------------------------------------------------|

d|------------------------------------------------------------|
A|--------5-------------5-------------5--------------5--------|
F|----7-----7---7---7-----7---7---7-----7---7----6-----6---6--|
C|--8---8-----8---8---8-----8---8---8-----8----7---7-----7----|
G|------------------------------------------------------------|
C|------------------------------------------------------------|

d|------------------------------------------------------------|
A|--------5-------------5--------------5--------------5-------|
F|----7-----7---7---7-----7----7---7-----7---7----7-----7---7-|
C|--7---7-----7---7---7-----7----7---7-----7----7---7-----7---|
G|------------------------------------------------------------|
C|------------------------------------------------------------|

d|------------------------------------------------------------|
A|--------5-------------5-------------5--------------5--------|
F|----7-----7---7---7-----7---7---7-----7---7----6-----6---6--|
C|--8---8-----8---8---8-----8---8---8-----8----7---7-----7----|
G|------------------------------------------------------------|
C|------------------------------------------------------------|


Guitar 2:
d|-----------------------------------------------------------------|
A|-----------------------------------------------------------------|
F|-----------------------------------------------------------------|
C|-0-0-0-0-0-0-0-0-0-0-0-0-0-0-0-0-0-0-0-0-0-0-0-0-0-0-0-0-0-0-0-0-|
G|-0-0-0-0-0-0-0-0-0-0-0-0-0-0-0-0-0-0-0-0-0-0-0-0-0-0-0-0-0-0-0-0-|
C|-0-0-0-0-0-0-0-0-0-0-0-0-0-0-0-0-0-0-0-0-0-0-0-0-0-0-0-0-0-0-0-0-|

d|------------------------------------------------------------------|
A|------------------------------------------------------------------|
F|------------------------------------------------------------------|
C|-8-8-8-8-8-8-8-8-8-8-8-8-8-8-8-8-8-8-8-8-8-8-8-8--7-7-7-7-7-7-7-7-|
G|-8-8-8-8-8-8-8-8-8-8-8-8-8-8-8-8-8-8-8-8-8-8-8-8--7-7-7-7-7-7-7-7-|
C|-8-8-8-8-8-8-8-8-8-8-8-8-8-8-8-8-8-8-8-8-8-8-8-8--7-7-7-7-7-7-7-7-|

d|-----------------------------------------------------------------|
A|-----------------------------------------------------------------|
F|-----------------------------------------------------------------|
C|-0-0-0-0-0-0-0-0-0-0-0-0-0-0-0-0-0-0-0-0-0-0-0-0-0-0-0-0-0-0-0-0-|
G|-0-0-0-0-0-0-0-0-0-0-0-0-0-0-0-0-0-0-0-0-0-0-0-0-0-0-0-0-0-0-0-0-|
C|-0-0-0-0-0-0-0-0-0-0-0-0-0-0-0-0-0-0-0-0-0-0-0-0-0-0-0-0-0-0-0-0-|

d|------------------------------------------------------------------|
A|------------------------------------------------------------------|
F|------------------------------------------------------------------|
C|-8-8-8-8-8-8-8-8-8-8-8-8-8-8-8-8-8-8-8-8-8-8-8-8--7-7-7-7-7-7-7-7-|
G|-8-8-8-8-8-8-8-8-8-8-8-8-8-8-8-8-8-8-8-8-8-8-8-8--7-7-7-7-7-7-7-7-|
C|-8-8-8-8-8-8-8-8-8-8-8-8-8-8-8-8-8-8-8-8-8-8-8-8--7-7-7-7-7-7-7-7-|


[Post-Chorus]

Both Guitars:
d|----------------------------------------------------------------------|
A|----------------------------------------------------------------------|
F|----------------------------------------------------------------------|
C|------0-0-0-0--------0-0-0-0--0--0-------0-0-0-0--------0-0-0-0--0--0-|
G|-0-0--0-0-0-0---0-0--0-0-0-0--0--0--0-0--0-0-0-0---0-0--0-0-0-0--0--0-|
C|-0-0--0-0-0-0---0-0--0-0-0-0--0--0--0-0--0-0-0-0---0-0--0-0-0-0--0--0-|
pm . .            . .                 . .            . .    

d|---------------------------------------------------------------------|
A|---------------------------------------------------------------------|
F|---------------------------------------------------------------------|
C|------0-0-0-0--------0-0-0-0--0--0-------7h8-8-8-------7h8-8-8--7--7-|
G|-0-0--0-0-0-0---0-0--0-0-0-0--0--0--8-8--7h8-8-8--8-8--7h8-8-8--7--7-|
C|-0-0--0-0-0-0---0-0--0-0-0-0--0--0--8-8--7h8-8-8--8-8--7h8-8-8--7--7-|
pm . .            . .                 . .           . . 


[BREAKDOWN]

[Part 1]

Guitar 1:
d|------------------------------------------------------|
A|------------------------------------------------------|
F|-7--10-9--12--10-14--12--15--7--10-9--12--10-9--7--6--|
C|-x--x--x--x---x--x---x---x---x--x--x--x---x--x--x--x--|
G|-5--8--7--10--8--12--10--13--5--8--7--10--8--7--5--4--|
C|------------------------------------------------------|

d|------------------------------------------------------|
A|------------------------------------------------------|
F|-7--10-9--12--10-14--12--15--7--10-9--12--10-9--7--6--|
C|-x--x--x--x---x--x---x---x---x--x--x--x---x--x--x--x--|
G|-5--8--7--10--8--12--10--13--5--8--7--10--8--7--5--4--|
C|------------------------------------------------------|

Guitar 2:
d|-----|
A|-----|
F|-(7)-|
C|-(x)-|  Feedback
G|-(5)-|
C|-----|

[Part 2]

Guitar 1:
d|--------------------------------------------------------------------------------------------------|
A|--------------------------------------------------------------------------------------------------|
F|--------------------------------------------------------------------------------7--3--7--10-9--7--|
C|---------0---------0-----0---------0------------------------0---------0-----0---x--x--x--x--x--x--|  
G|--0-0-0--0--0-0-0--0--0--0--0-0-0--0---0-0-0--4-4-4--0-0-0--0--0-0-0--0--0--0---5--1--5--8--7--5--|
C|--0-0-0--0--0-0-0--0--0--0--0-0-0--0---0-0-0---------0-0-0--0--0-0-0--0--0--0---------------------|
pm  . . .     . . .     .     . . .      . . .         . . .     . . .     .      

d|--------------------------------------------------------------------------------------------------|
A|--------------------------------------------------------------------------------------------------|
F|--------------------------------------------------------------------------------7--3--7--10-9--7--|
C|---------0---------0-----0---------0------------------------0---------0-----0---x--x--x--x--x--x--|  
G|--0-0-0--0--0-0-0--0--0--0--0-0-0--0---0-0-0--4-4-4--0-0-0--0--0-0-0--0--0--0---5--1--5--8--7--5--|
C|--0-0-0--0--0-0-0--0--0--0--0-0-0--0---0-0-0---------0-0-0--0--0-0-0--0--0--0---------------------|
pm  . . .     . . .     .     . . .      . . .         . . .     . . .     .        

Guitar 2:
d|--------------------------------------------------------------------------------------------------|
A|--------------------------------------------------------------------------------------------------|
F|--------------------------------------------------------------------------------------------------|
C|---------0---------0-----0---------0------------------------0---------0-----0---------------------|  
G|--0-0-0--0--0-0-0--0--0--0--0-0-0--0---0-0-0--4-4-4--0-0-0--0--0-0-0--0--0--0---0--0--0--11-11-11-|
C|--0-0-0--0--0-0-0--0--0--0--0-0-0--0---0-0-0---------0-0-0--0--0-0-0--0--0--0---0--0--0--11-11-11-|
pm  . . .     . . .     .     . . .      . . .         . . .     . . .     .      .  .  .  .  .  .

d|--------------------------------------------------------------------------------------------------|
A|--------------------------------------------------------------------------------------------------|
F|--------------------------------------------------------------------------------------------------|
C|---------0---------0-----0---------0------------------------0---------0-----0---------------------|  
G|--0-0-0--0--0-0-0--0--0--0--0-0-0--0---0-0-0--4-4-4--0-0-0--0--0-0-0--0--0--0---0--0--0--11-11-11-|
C|--0-0-0--0--0-0-0--0--0--0--0-0-0--0---0-0-0---------0-0-0--0--0-0-0--0--0--0---0--0--0--11-11-11-|
pm  . . .     . . .     .     . . .      . . .         . . .     . . .     .      .  .  .  .  .  .

[Part 3]

Guitar 1:
d|------------------------------------------------------|
A|------------------------------------------------------|
F|-7--10-9--12--10-14--12--15--7--10-9--12--10-9--7--6--|
C|-x--x--x--x---x--x---x---x---x--x--x--x---x--x--x--x--|
G|-5--8--7--10--8--12--10--13--5--8--7--10--8--7--5--4--|
C|------------------------------------------------------|

d|------------------------------------------------------------|
A|------------------------------------------------------------|
F|-7--10-9--12--10-14--12--15--7--10-9--12--7--3--7--10-9--7--|
C|-x--x--x--x---x--x---x---x---x--x--x--x---x--x--x--x--x--x--|
G|-5--8--7--10--8--12--10--13--5--8--7--10--5--1--5--8--7--5--|
C|------------------------------------------------------------|

Guitar 2:
d|---------------------------------------------------------------------------------------------------|
A|---------------------------------------------------------------------------------------------------|
F|---------------------------------------------------------------------------------------------------|
C|---------8---------8-----8---------8----------8---------8---------8-----8----------8-----------11--|  
G|--8-8-8--8--8-8-8--8--8--8--8-8-8--8---8-8-8--8--8-8-8--8--8-8-8--8--8--8---8-8-8--8--11-11-11-11--|
C|--8-8-8--8--8-8-8--8--8--8--8-8-8--8---8-8-8--8--8-8-8--8--8-8-8--8--8--8---8-8-8--8--11-11-11-11--|
pm  . . .     . . .     .     . . .      . . .     . . .     . . .     .      . . .     .  .  .

d|--------------------------------------------------------------------------------------------------|
A|--------------------------------------------------------------------------------------------------|
F|--------------------------------------------------------------------------------------------------|
C|---------0---------0-----0---------0------------------------0---------0-----0---------------------|  
G|--0-0-0--0--0-0-0--0--0--0--0-0-0--0---0-0-0--4-4-4--0-0-0--0--0-0-0--0--0--0---0--0--0--11-11-11-|
C|--0-0-0--0--0-0-0--0--0--0--0-0-0--0---0-0-0---------0-0-0--0--0-0-0--0--0--0---0--0--0--11-11-11-|
pm  . . .     . . .     .     . . .      . . .         . . .     . . .     .      .  .  .  .  .  .



[Pre-Chorus]


Guitar 1:
d|---------5~-----------------------------------------------------------------------|
A|---------6~-----1~---------------------------------------------------5------------|
F|---------7~-----2~-----------------------------------5--5------5-------5---5------|
C|-12~-----7~-----2~--3-3-3-3-3-3-3-3-3-3-3-3-3-3-3-3--5--5--------5-------5--------|
G|-8~------5~-----0~--1-1-1-1-1-1-1-1-1-1-1-1-1-1-1-1--3--3----------3--------------|
C|-8~------x------x-----------------------------------------------------------------|
pm                    . . . . . . . . . . . . . . . .

Guitar 2:
d|-------------------------------------------------------------------3-------|
A|-------------------------------------------------------------5-------5---5-|
F|-----------------------------------------------------5--5------5-------5---|
C|-8~-----------------3-3-3-3-3-3-3-3-3-3-3-3-3-3-3-3--5--5--------5---------|
G|-8~-----------------1-1-1-1-1-1-1-1-1-1-1-1-1-1-1-1--3--3------------------|
C|-8~------------------------------------------------------------------------|
pm                    . . . . . . . . . . . . . . . . 


[Chorus 3]

Guitar 1:
d|------------------------------------------------------------|
A|--------5-------------5--------------5--------------5-------|
F|----7-----7---7---7-----7----7---7-----7---7----7-----7---7-|
C|--7---7-----7---7---7-----7----7---7-----7----7---7-----7---|
G|------------------------------------------------------------|
C|------------------------------------------------------------|

d|------------------------------------------------------------|
A|--------5-------------5-------------5--------------5--------|
F|----7-----7---7---7-----7---7---7-----7---7----6-----6---6--|
C|--8---8-----8---8---8-----8---8---8-----8----7---7-----7----|
G|------------------------------------------------------------|
C|------------------------------------------------------------|

d|------------------------------------------------------------|
A|--------5-------------5--------------5--------------5-------|
F|----7-----7---7---7-----7----7---7-----7---7----7-----7---7-|
C|--7---7-----7---7---7-----7----7---7-----7----7---7-----7---|
G|------------------------------------------------------------|
C|------------------------------------------------------------|

d|------------------------------------------------------------|
A|--------5-------------5-------------5--------------5--------|
F|----7-----7---7---7-----7---7---7-----7---7----6-----6---6--|
C|--8---8-----8---8---8-----8---8---8-----8----7---7-----7----|
G|------------------------------------------------------------|
C|------------------------------------------------------------|

Guitar 2:
d|-----------------------------------------------------------------|
A|-----------------------------------------------------------------|
F|-----------------------------------------------------------------|
C|-0-0-0-0-0-0-0-0-0-0-0-0-0-0-0-0-0-0-0-0-0-0-0-0-0-0-0-0-0-0-0-0-|
G|-0-0-0-0-0-0-0-0-0-0-0-0-0-0-0-0-0-0-0-0-0-0-0-0-0-0-0-0-0-0-0-0-|
C|-0-0-0-0-0-0-0-0-0-0-0-0-0-0-0-0-0-0-0-0-0-0-0-0-0-0-0-0-0-0-0-0-|

d|------------------------------------------------------------------|
A|------------------------------------------------------------------|
F|------------------------------------------------------------------|
C|-8-8-8-8-8-8-8-8-8-8-8-8-8-8-8-8-8-8-8-8-8-8-8-8--7-7-7-7-7-7-7-7-|
G|-8-8-8-8-8-8-8-8-8-8-8-8-8-8-8-8-8-8-8-8-8-8-8-8--7-7-7-7-7-7-7-7-|
C|-8-8-8-8-8-8-8-8-8-8-8-8-8-8-8-8-8-8-8-8-8-8-8-8--7-7-7-7-7-7-7-7-|

d|-----------------------------------------------------------------|
A|-----------------------------------------------------------------|
F|-----------------------------------------------------------------|
C|-0-0-0-0-0-0-0-0-0-0-0-0-0-0-0-0-0-0-0-0-0-0-0-0-0-0-0-0-0-0-0-0-|
G|-0-0-0-0-0-0-0-0-0-0-0-0-0-0-0-0-0-0-0-0-0-0-0-0-0-0-0-0-0-0-0-0-|
C|-0-0-0-0-0-0-0-0-0-0-0-0-0-0-0-0-0-0-0-0-0-0-0-0-0-0-0-0-0-0-0-0-|

d|------------------------------------------------------------------|
A|------------------------------------------------------------------|
F|------------------------------------------------------------------|
C|-8-8-8-8-8-8-8-8-8-8-8-8-8-8-8-8-8-8-8-8-8-8-8-8--7-7-7-7-7-7-7-7-|
G|-8-8-8-8-8-8-8-8-8-8-8-8-8-8-8-8-8-8-8-8-8-8-8-8--7-7-7-7-7-7-7-7-|
C|-8-8-8-8-8-8-8-8-8-8-8-8-8-8-8-8-8-8-8-8-8-8-8-8--7-7-7-7-7-7-7-7-|


[Outro]

Both Guitars:
d|------------------------------------------------------------------------------------|
A|------------------------------------------------------------------------------------|
F|------------------------------------------------------------------------------------|
C|------10h12-0--0--------10h12-0--0---0--0-------10h12-0--0--------10h12-0--0---0--0-|
G|-0-0--10h12-0--0---0-0--10h12-0--0---0--0--0-0--10h12-0--0---0-0--10h12-0--0---0--0-|
C|-0-0--10h12-0--0---0-0--10h12-0--0---0--0--0-0--10h12-0--0---0-0--10h12-0--0---0--0-|
pm . .               . .                     . .               . .    

d|--------------------------------------------------------------------5~--|
A|--------------------------------------------------------------------6~--|
F|--------------------------------------------------------------------7~--|
C|------10h12-0--0--------10h12-0--0---0--0-------7h8-8-8------7--7---0~--|
G|-0-0--10h12-0--0---0-0--10h12-0--0---0--0--8-8--7h8-8-8--8---7--7---0~--|
C|-0-0--10h12-0--0---0-0--10h12-0--0---0--0--8-8--7h8-8-8--8---7--7---0~--|
pm . .               . .                     . .           .  


************************************

| x    Dead note
| (n)  Ghost note
| h    Hammer-on
| /    Slide up
| ~    Vibrato
| pm . Palm mute

************************************
Suggest correction
Creating personal tab
Creating personal tab
You can edit any tab online and save it as your Personal.

You can edit, replace or remove any tab part or add personal notes – all changes will be seen only by you.

Personal tabs can be accessed anytime from any device, even offline.
Learn more »
comments
print report bad tab
6 comments total. Showing first comments.
0 reply
lespaulfreak123 140 Jul 30, 2016 11:28 AM, edited at 03:30 pm

during the pre chorus after the breakdown the 11 1012 1212 1212 would be 12Its a C minor rather than C major

it would also be 17 16, not 17 15.

0 reply
lespaulfreak123 140 Jul 30, 2016 11:32 AM

ignore my comment its all fucked up with this new comment system.
\

0 reply
jacob_moss 116 Aug 02, 2016 09:24 PM

Guitar Pro? that would be awesome

guest
You may want to rate the tab now too:
select rating
Wanna post a correction for this tab? Suggest correction