Oops, an error
Loading. Please wait.

City Of Ocala Tab

version 2
version 2

Whole song

Interactive

2,259 views 1 this week
no commentswrite comment
1 2 3 4 5
please rate
add to favorites
launch autoscroll
font size
0
reset
how to read this tab
guitar tuner
Autoscroll
slow
fast
+/-
esc
set tempo
stop
Help us to improve Ultimate-Guitar.com Take our survey!
×
Author
Difficulty
Tuning
novice
C# G# C# F# A# D#
Intro
D#-----------------|
A#-----------------|
F#-22--22449~~~~~~~|
C#-222222449~~~~~~~|
G#-002200227~~~~~~~|
C#---22------------|

'Fuck yeah!'
D#-------------------------------------------------|
A#-------------------------------------------------|
F#-----------------22--22--666666666666666622--2244|
C#-222222222222222222222222666666666666666622222244|
G#-222222222222222200220022444444444444444400220022|
C#-2222222222222222--22--22------------------22----|

'Remember way back when...'
D#-------------------------------------------------|
A#-------------------------------------------------|
F#-----------------22--22--666666666666666622--2244|
C#-222222222222222222222222666666666666666622222244|
G#-222222222222222200220022444444444444444400220022|
C#-2222222222222222--22--22------------------22----|
PM-****************--------------------------------|

'That was then...'
Rhythm
D#-----------------------------------------------|
A#-----------------------------------------------|
F#-2222222244444444666---222222224444444444444444|
C#-2222222244444444666222222222224444444444444444|
G#-0000000022222222444222000000002222222222222222|
C#--------------------222------------------------|

Lead
D#------------------------------------------------------------------|
A#------------------------------------------------------------------|
F#-9-9-9-9-9-9-9-9-8-8-8-8------------------------------------------|
C#-9-9-9-9-9-9-9-9-8-8-8-8------------------------------------------|
G#-7-7-7-7-7-7-7-7-6-6-6-6------------------------7~~~~~~~796~~~~~~~|
C#------------------------------------------------------------------|

'This is our corner of the world...'
Rhythm
D#-----------------------------------------------------------------|
A#-----------------------------------------------------------------|
F#-22222222--------444444446666444422222222--------4444444444444444|
C#-2222222222222222444444446666444422222222222222224444444444444444|
G#-0000000022222222222222224444222200000000222222222222222222222222|
C#---------22222222------------------------22222222----------------|

Lead (I can't really hear it well enough to tab it so this is all I've got)
D#-7~7~75~5~~|
A#--5~5~~5~5~|
F#-----------|
C#-----------|
G#-----------|
C#-----------|

'Remember way back when...'
D#-------------------------------------------------|
A#-------------------------------------------------|
F#-----------------22--22--666666666666666622--2244|
C#-222222222222222222222222666666666666666622222244|
G#-222222222222222200220022444444444444444400220022|
C#-2222222222222222--22--22------------------22----|
PM-****************--------------------------------|

'That was then...'
Rhythm
D#-----------------------------------------------|
A#-----------------------------------------------|
F#-2222222244444444666---222222224444444444444444|
C#-2222222244444444666222222222224444444444444444|
G#-0000000022222222444222000000002222222222222222|
C#--------------------222------------------------|

Lead
D#------------------------------------------------------------------|
A#------------------------------------------------------------------|
F#-999999999-9-9-9-8-8-8-8------------------------------------------|
C#-999999999-9-9-9-8-8-8-8------------------------------------------|
G#-777777777-7-7-7-6-6-6-6------------------------7~~~~~~~796~~~~~~~|
C#------------------------------------------------------------------|

'This is our corner of the world...'
Rhythm
D#-----------------------------------------------------------------|
A#-----------------------------------------------------------------|
F#-22222222--------444444446666444422222222--------4444444444444444| X2
C#-2222222222222222444444446666444422222222222222224444444444444444|
G#-0000000022222222222222224444222200000000222222222222222222222222|
C#---------22222222------------------------22222222----------------|

Lead
D#-7~7~75~5~~|
A#--5~5~~5~5~|
F#-----------|
C#-----------|
G#-----------|
C#-----------|

'You had another thing coming...'
Rhythm
D#-------------------------------------|
A#-------------------------------------|
F#------------------666666666--222222--| X5
C#-222222222--222222666666666--22222222|
G#-222222222--222222444444444--00000022|
C#-222222222--222222-----------------22|
PM-***--------------***----------------|

Lead
D#----442244--442240---442244--7~~7~~7~|
A#---------------------------~~~77~77~7|
F#-------------------------------------| X5
C#-------------------------------------|
G#-------------------------------------|
C#-------------------------------------|

'Woahhh Ohhh...'
D#-----------------------------|
A#--------12~~~----------------|
F#-~~9~~~~~~9~~9~8~9~8~9~8~9~8~| X2
C#-~9~9~~9~~~~~----------------|
G#-----------------------------|
C#-----------------------------|

'Woahhh Ohhh...'
Rhythm
D#-----------------------------------------------------------------|
A#-----------------------------------------------------------------|
F#-22222222--------444444444444444422222222--------4444444444444444|
C#-2222222222222222444444444444444422222222222222224444444444444444|
G#-0000000022222222222222222222222200000000222222222222222222222222|
C#---------22222222------------------------22222222----------------|

Lead
D#-7~7~75~5~~|
A#--5~5~~5~5~|
F#-----------|
C#-----------|
G#-----------|
C#-----------|

'This is what made us who we became...'
Rhythm
D#-----------------------------------------------------------------|
A#-----------------------------------------------------------------|
F#-22222222--------444444446666444422222222--------4444444444444444| X2
C#-2222222222222222444444446666444422222222222222224444444444444444|
G#-0000000022222222222222224444222200000000222222222222222222222222|
C#---------22222222------------------------22222222----------------|

Lead
D#-7~7~75~5~~|
A#--5~5~~5~5~|
F#-----------|
C#-----------|
G#-----------|
C#-----------|

Outro
D#-----------------|
A#-----------------|
F#-22--22449~~~~~~~|
C#-222222449~~~~~~~|
G#-002200227~~~~~~~|
Suggest correction
What's this?
You can suggest a correction to this tab. Community and Mods will review your correction and vote to approve or reject it.
comments
We did not receive enough feedback on this tab! Please rate:
print report bad tab
1 2 3 4 5
guest
You may want to rate the tab now too:
select rating
Please do not post tabs as comments. Select "correction" instead!