Oops, an error
Loading. Please wait.

City Of Ocala Tab

version 3
version 3

Whole song

Interactive

3,796 views 1 this week
2 commentsread comments
1 2 3 4 5
1 last vote to show rating
add to favorites
launch autoscroll
font size
0
reset
how to read this tab
guitar tuner
Autoscroll
slow
fast
+/-
esc
set tempo
stop
Help us to improve Ultimate-Guitar.com Take our survey!
×
Author
Difficulty
Tuning
intermediate
C G C F A D
City Of Ocala

Intro:
D|---------------------------------------------------------|
A|---------------------------------------------------------|
F|-3-3----------------3-3----------------------------------|
C|-3-3-3--3-3-3-3-3---3-3--2--2-2-2-2-2--------------------|
G|-1-1-3--3-3-3-3-3---1-1--3--3-3-3-3-3--------------------|
C|-----3--3-3-3-3-3----------------------------------------|

                                                                FUCK YEAH!
D|--------------------------------------------------------------|
A|--------------------------------------------------------------|
F|--------------------------------------------------------------|
C|-10-10-10-10-10-10-10-10-10-10-10-10-10-10-10-10-10-10-10-10--|
G|-10-10-10-10-10-10-10-10-10-10-10-10-10-10-10-10-10-10-10-10--|
C|-8--8--8--8--8--8--8--8--8--8--8--8--8--8--8--8--8--8--8--8---|

D|--------------------------------------------------------------|
A|--------------------------------------------------------------|
F|--------------------------------------------------------------|
C|-3--3--3--3-3-3-3-3----3--3--3--3-3-3-3-3---------------------|
G|-3--3--3--3-3-3-3-3----3--3--3--3-3-3-3-3---------------------|
C|-3--3--3--3-3-3-3-3----3--3--3--3-3-3-3-3---------------------|

D|--------------------------------------------------------------|
A|--------------------------------------------------------------|
F|-3-3-------------------3-3------------------------------------|
C|-3-3--3---3-3-3-3-3----3-3--3---3-3-3-3-3---------------------|
G|-1-1--3---3-3-3-3-3----1-1--3---3-3-3-3-3---------------------|
C|------3---3-3-3-3-3---------3---3-3-3-3-3---------------------|

D|--------------------------------------------------------------|
A|--------------------------------------------------------------|
F|-7--7--7--7-7-7-7-7----7--7--7--7-7-7-7-7---------------------|
C|-7--7--7--7-7-7-7-7----7--7--7--7-7-7-7-7---------------------|
G|-5--5--5--5-5-5-5-5----5--5--5--5-5-5-5-5---------------------|
C|--------------------------------------------------------------|

D|--------------------------------------------------------------|
A|--------------------------------------------------------------|
F|-3-3----------------3-3---------------------------------------|
C|-3-3-3--3-3-3-3-3---3-3--2--2-2-2-2-2-------------------------|
G|-1-1-3--3-3-3-3-3---1-1--3--3-3-3-3-3-------------------------|
C|-----3--3-3-3-3-3---------------------------------------------|

Verse:
"Remember way back when, they said this life was a dream"
D|--------------------------------------------------------------|
A|--------------------------------------------------------------|
F|--------------------------------------------------------------|
C|-10-10-10-10-10-10-10-10-10-10-10-10-10-10-10-10-10-10-10-10--|
G|-10-10-10-10-10-10-10-10-10-10-10-10-10-10-10-10-10-10-10-10--|
C|-8--8--8--8--8--8--8--8--8--8--8--8--8--8--8--8--8--8--8--8---|

"Well it still is, I never wanna wake..."
D|--------------------------------------------------------------|
A|--------------------------------------------------------------|
F|-3-3-------------------3-3------------------------------------|
C|-3-3--3---3-3-3-3-3----3-3--3---3-3-3-3-3---------------------|
G|-1-1--3---3-3-3-3-3----1-1--3---3-3-3-3-3---------------------|
C|------3---3-3-3-3-3---------3---3-3-3-3-3---------------------|

D|--------------------------------------------------------------|
A|--------------------------------------------------------------|
F|-7--7--7--7-7-7-7-7----7--7--7--7-7-7-7-7---------------------|
C|-7--7--7--7-7-7-7-7----7--7--7--7-7-7-7-7---------------------|
G|-5--5--5--5-5-5-5-5----5--5--5--5-5-5-5-5---------------------|
C|--------------------------------------------------------------|



D|--------------------------------------------------------------|
A|--------------------------------------------------------------|
F|-3-3----------------3-3---------------------------------------|
C|-3-3-3--3-3-3-3-3---3-3--2--2-2-2-2-2-------------------------|
G|-1-1-3--3-3-3-3-3---1-1--3--3-3-3-3-3-------------------------|
C|-----3--3-3-3-3-3---------------------------------------------|

Pre chorus:
D|---------------------|
A|---------------------|
F|---------------------|
C|-10--10--10--10--10--|
G|-10--10--10--10--10--|
C|-8---8---8---8---8---|

D|--------------------------------------------------------------|
A|--------------------------------------------------------------|
F|--------------------------------------------------------------|
C|-8--8--8--8--8--8--8--8---10--10--10--10--10--10--10--10------|
G|-8--8--8--8--8--8--8--8---10--10--10--10--10--10--10--10------|
C|-8--8--8--8--8--8--8--8---10--10--10--10--10--10--10--10------|

D|--------------------------------------------------------------|
A|--------------------------------------------------------------|
F|--------------------------------------------------------------|
C|-12-12-12-15-15-15-15-8---8-8-8-8-8-8-8-8---------------------|
G|-12-12-12-15-15-15-15-8---8-8-8-8-8-8-8-8---------------------|
C|-12-12-12-15-15-15-15-8---8-8-8-8-8-8-8-8---------------------|

D|--------------------------------------------------------------|
A|--------------------------------------------------------------|
F|-5-5-5-5-5-5-5-5----------------------------------------------|
C|-5-5-5-5-5-5-5-5----2---2---2---2---2-------------------------|
G|-3-3-3-3-3-3-3-3------3---3---3---3---3-----------------------|
C|--------------------------------------------------------------|

Chorus:
D|--------------------------------------------------------------|
A|--------------------------------------------------------------|
F|--------------------------------------------------------------|
C|-8--8--8--8--8--8--8--8---15--15--15--15--15--15--15--15------|
G|-8--8--8--8--8--8--8--8---15--15--15--15--15--15--15--15------|
C|-8--8--8--8--8--8--8--8---15--15--15--15--15--15--15--15------|

D|--------------------------------------------------------------|
A|--------------------------------------------------------------|
F|--------------------------------------------------------------|
C|--------------------------12--12--12--12--10--10--10--10------|
G|-15----15----15----15-----12--12--12--12--10--10--10--10------|
C|----14----14----14----14--12--12--12--12--10--10--10--10------|

D|--------------------------------------------------------------|
A|--------------------------------------------------------------|
F|--------------------------------------------------------------|
C|-8--8--8--8--8--8--8--8---15--15--15--15--15--15--15--15------|
G|-8--8--8--8--8--8--8--8---15--15--15--15--15--15--15--15------|
C|-8--8--8--8--8--8--8--8---15--15--15--15--15--15--15--15------|

D|--------------------------------------------------------------|
A|--------------------------------------------------------------|
F|--------------------------------------------------------------|
C|-2---2---2---2------2---2---2---2-----------------------------|
G|---3---3---3---3------3---3---3---3---------------------------|
C|--------------------------------------------------------------|

Post chorus:
D|--------------------------------------------------------------|
A|--------------------------------------------------------------|
F|-3-3----------------3-3---------------------------------------|
C|-3-3-3--3-3-3-3-3---3-3--2--2-2-2-2-2-------------------------|
G|-1-1-3--3-3-3-3-3---1-1--3--3-3-3-3-3-------------------------|
C|-----3--3-3-3-3-3---------------------------------------------|
Verse 2:
D|--------------------------------------------------------------|
A|--------------------------------------------------------------|
F|--------------------------------------------------------------|
C|-10-10-10-10-10-10-10-10-10-10-10-10-10-10-10-10-10-10-10-10--|
G|-10-10-10-10-10-10-10-10-10-10-10-10-10-10-10-10-10-10-10-10--|
C|-8--8--8--8--8--8--8--8--8--8--8--8--8--8--8--8--8--8--8--8---|

D|--------------------------------------------------------------|
A|--------------------------------------------------------------|
F|-3-3-------------------3-3------------------------------------|
C|-3-3--3---3-3-3-3-3----3-3--3---3-3-3-3-3---------------------|
G|-1-1--3---3-3-3-3-3----1-1--3---3-3-3-3-3---------------------|
C|------3---3-3-3-3-3---------3---3-3-3-3-3---------------------|

D|--------------------------------------------------------------|
A|--------------------------------------------------------------|
F|-7--7--7--7-7-7-7-7----7--7--7--7-7-7-7-7---------------------|
C|-7--7--7--7-7-7-7-7----7--7--7--7-7-7-7-7---------------------|
G|-5--5--5--5-5-5-5-5----5--5--5--5-5-5-5-5---------------------|
C|--------------------------------------------------------------|

D|--------------------------------------------------------------|
A|--------------------------------------------------------------|
F|-3-3----------------3-3---------------------------------------|
C|-3-3-3--3-3-3-3-3---3-3--2--2-2-2-2-2-------------------------|
G|-1-1-3--3-3-3-3-3---1-1--3--3-3-3-3-3-------------------------|
C|-----3--3-3-3-3-3---------------------------------------------|

D|-------------------------------------|
A|-------------------------------------|
F|-------------------------------------|
C|-10--10--10--10--10--10--10--10------|
G|-10--10--10--10--10--10--10--10------| 
C|-8---8---8---8---8---8---8---8-------|

Pre chorus:
D|--------------------------------------------------------------|
A|--------------------------------------------------------------|
F|--------------------------------------------------------------|
C|-8--8--8--8--8--8--8--8---10--10--10--10--10--10--10--10------|
G|-8--8--8--8--8--8--8--8---10--10--10--10--10--10--10--10------|
C|-8--8--8--8--8--8--8--8---10--10--10--10--10--10--10--10------|

D|--------------------------------------------------------------|
A|--------------------------------------------------------------|
F|--------------------------------------------------------------|
C|-12-12-12-15-15-15-15-8---8-8-8-8-8-8-8-8---------------------|
G|-12-12-12-15-15-15-15-8---8-8-8-8-8-8-8-8---------------------|
C|-12-12-12-15-15-15-15-8---8-8-8-8-8-8-8-8---------------------|

D|--------------------------------------------------------------|
A|--------------------------------------------------------------|
F|-5-5-5-5-5-5-5-5----------------------------------------------|
C|-5-5-5-5-5-5-5-5----2---2---2---2---2-------------------------|
G|-3-3-3-3-3-3-3-3------3---3---3---3---3-----------------------|
C|--------------------------------------------------------------|

Chorus:
D|--------------------------------------------------------------|
A|--------------------------------------------------------------|
F|--------------------------------------------------------------|
C|-8--8--8--8--8--8--8--8---15--15--15--15--15--15--15--15------|
G|-8--8--8--8--8--8--8--8---15--15--15--15--15--15--15--15------|
C|-8--8--8--8--8--8--8--8---15--15--15--15--15--15--15--15------|

D|--------------------------------------------------------------|
A|--------------------------------------------------------------|
F|--------------------------------------------------------------|
C|--------------------------12--12--12--12--10--10--10--10------|
G|-15----15----15----15-----12--12--12--12--10--10--10--10------|
C|----14----14----14----14--12--12--12--12--10--10--10--10------|

D|--------------------------------------------------------------|
A|--------------------------------------------------------------|
F|--------------------------------------------------------------|
C|-8--8--8--8--8--8--8--8---15--15--15--15--15--15--15--15------|
G|-8--8--8--8--8--8--8--8---15--15--15--15--15--15--15--15------|
C|-8--8--8--8--8--8--8--8---15--15--15--15--15--15--15--15------|

D|--------------------------------------------------------------|
A|--------------------------------------------------------------|
F|--------------------------------------------------------------|
C|-2---2---2---2------2---2---2---2-----------------------------|
G|---3---3---3---3------3---3---3---3---------------------------|
C|--------------------------------------------------------------|

D|--------------------------------------------------------------|
A|--------------------------------------------------------------|
F|--------------------------------------------------------------|
C|-8--8--8--8--8--8--8--8---15--15--15--15--15--15--15--15------|
G|-8--8--8--8--8--8--8--8---15--15--15--15--15--15--15--15------|
C|-8--8--8--8--8--8--8--8---15--15--15--15--15--15--15--15------|

D|--------------------------------------------------------------|
A|--------------------------------------------------------------|
F|--------------------------------------------------------------|
C|--------------------------12--12--12--12--10--10--10--10------|
G|-15----15----15----15-----12--12--12--12--10--10--10--10------|
C|----14----14----14----14--12--12--12--12--10--10--10--10------|

D|--------------------------------------------------------------|
A|--------------------------------------------------------------|
F|--------------------------------------------------------------|
C|-8--8--8--8--8--8--8--8---15--15--15--15--15--15--15--15------|
G|-8--8--8--8--8--8--8--8---15--15--15--15--15--15--15--15------|
C|-8--8--8--8--8--8--8--8---15--15--15--15--15--15--15--15------|

D|--------------------------------------------------------------|
A|--------------------------------------------------------------|
F|--------------------------------------------------------------|
C|-2---2---2---2------2---2---2---2-----------------------------|
G|---3---3---3---3------3---3---3---3---------------------------|
C|--------------------------------------------------------------|

Bridge:
D|--------------------------------------------------------------|
A|--------------------------------------------------------------|
F|-14-14-12-12-14---14-14-12-12-10-10---14-14-12-12-14-14-------|
C|--------------------------------------------------------------|
G|-12-12-10-10-12---12-12-10-10-8--8----12-12-10-10-12-12-------|
C|--------------------------------------------------------------|

D|----------------------------|
A|-13----13----13----13-------|
F|----10----10----10----10----|
C|----------------------------|
G|----------------------------|
C|----------------------------|

D|-------------------8------------------------------------------|
A|---------------------------------6-------6-------6------------|
F|------10--------------10------------9-------9-------9---------|
C|---10----10---10---------10------------10-----10------10------|
G|-8----------8----8-----------3--3-----------------------------|
C|--------------------------------------------------------------|

D|-------------------8------------------------------------------|
A|---------------------------------6-------6-------6------------|
F|------10--------------10------------9-------9-------9---------|
C|---10----10---10---------10------------10-----10------10------|
G|-8----------8----8-----------3--3-----------------------------|
C|--------------------------------------------------------------|

D|--------------------------------------------------------------|
A|--------------------------------------------------------------|
F|--------------------------------------------------------------|
C|-8--8--8--8--8--8--8--8---3--3--3--3--3--3--3--3--------------|
G|-8--8--8--8--8--8--8--8---3--3--3--3--3--3--3--3--------------|
C|-8--8--8--8--8--8--8--8---3--3--3--3--3--3--3--3--------------|

D|--------------------------------------------------------------|
A|--------------------------------------------------------------|
F|--------------------------------------------------------------|
C|-2---2---2---2------2---2---2---2-----------------------------|
G|---3---3---3---3------3---3---3---3---------------------------|
C|--------------------------------------------------------------|

D|--------------------------------------------------------------|
A|--------------------------------------------------------------|
F|--------------------------------------------------------------|
C|-8--8--8--8--8--8--8--8---3--3--3--3--3--3--3--3--------------|
G|-8--8--8--8--8--8--8--8---3--3--3--3--3--3--3--3--------------|
C|-8--8--8--8--8--8--8--8---3--3--3--3--3--3--3--3--------------|

D|--------------------------------------------------------------|
A|--------------------------------------------------------------|
F|--------------------------------------------------------------|
C|-2---2---2---2------2---2---2---2-----------------------------|
G|---3---3---3---3------3---3---3---3---------------------------|
C|--------------------------------------------------------------|

Chorus:
D|--------------------------------------------------------------|
A|--------------------------------------------------------------|
F|--------------------------------------------------------------|
C|-8--8--8--8--8--8--8--8---15--15--15--15--15--15--15--15------|
G|-8--8--8--8--8--8--8--8---15--15--15--15--15--15--15--15------|
C|-8--8--8--8--8--8--8--8---15--15--15--15--15--15--15--15------|

D|--------------------------------------------------------------|
A|--------------------------------------------------------------|
F|--------------------------------------------------------------|
C|--------------------------12--12--12--12--10--10--10--10------|
G|-15----15----15----15-----12--12--12--12--10--10--10--10------|
C|----14----14----14----14--12--12--12--12--10--10--10--10------|

D|--------------------------------------------------------------|
A|--------------------------------------------------------------|
F|--------------------------------------------------------------|
C|-8--8--8--8--8--8--8--8---15--15--15--15--15--15--15--15------|
G|-8--8--8--8--8--8--8--8---15--15--15--15--15--15--15--15------|
C|-8--8--8--8--8--8--8--8---15--15--15--15--15--15--15--15------|

D|--------------------------------------------------------------|
A|--------------------------------------------------------------|
F|--------------------------------------------------------------|
C|-2---2---2---2------2---2---2---2-----------------------------|
G|---3---3---3---3------3---3---3---3---------------------------|
C|--------------------------------------------------------------|

Outro:
D|--------------------------------------------------------------|
A|--------------------------------------------------------------|
F|-3-3----------------3-3---------------------------------------|
C|-3-3-3--3-3-3-3-3---3-3--2--2-2-2-2-2---3~--------------------|
G|-1-1-3--3-3-3-3-3---1-1--3--3-3-3-3-3---3~--------------------|
C|-----3--3-3-3-3-3-----------------------3~--------------------|

END!!
Suggest correction
Give kudos to tab author, rate the tab!
1 2 3 4 5
comments
print report bad tab
2 comments total.
+1 reply
legendary! 72 Oct 21, 2013 11:47 PM

sorry about the:
D|---------------------|
A|---------------------|
F|---------------------|
C|-10--10--10--10--10--|
G|-10--10--10--10--10--|
C|-8---8---8---8---8---|

its mean't to be

D|---------------------|
A|---------------------|
F|-10------------------|
C|-x-------------------| x5
G|-8-------------------|
C|---------------------|

same with the start of each verse

0 reply
Audible Warfare 806 Dec 01, 2013 10:40 PM

It could use a bit of fixing up and the leads.

guest
You may want to rate the tab now too:
select rating
Wanna post a correction for this tab? Suggest correction