Oops, an error
Loading. Please wait.

Danger Of Starting A Fire Bass Tab

1,372 views 1 this week
no commentswrite comment
1 2 3 4 5
2 more votes to show rating
add to favorites
launch autoscroll
font size
0
reset
guitar tuner
Autoscroll
slow
fast
+/-
esc
set tempo
stop
Help us to improve Ultimate-Guitar.com Take our survey!
×
Difficulty
Tuning
intermediate
C G C F A D
Intro:
F|-------------------------|
C|----8--------------------|
G|-------------------------|
C|0-----0------0-----0-----|

Verse:
F|-----------------------------------|--------------------------------|
C|-----------------------------------|--------------------------------|
G|-----------------------------------|--------------------------------|
C|---5~55~555~555~5558~88~888~888~888|0~00~000~000~0003~33~333~333~333|

F|-----------------------------------|--------------------------------|
C|-----------------------------------|--------------------------------|
G|-----------------------------------|--------------------------------|
C|---5~55~555~555~5558~88~888~888~888|0~00~000~000~0003~33~333~333~333|

PreChorus (x2)
F|-------------------------------------------|-----------------|-----------------|
C|-------------------------------------------|-----------------|-----------------|
G|-------------------------------------------|--8-7------8-7---|--8-7------8-7---|
C|5555555555553338~~8-8~-8-8-8~-8-8-8~-8-8-8-|00-0-10-0-0-0-10~|00-0-10-0-0-0-10~|

Break:
F|-----------------|--------------|
C|-----------------|--------------|
G|--8-7------8-7---|--8-7-----10*b|
C|00-0-10-0-0-0-10~|00-0-10-0-----|

Break 2: (x4)
F|-----------------|
C|-----------------|
G|--8-7------8-7---|
C|00-0-10-0-0-0-10~|

Interlude:
F|----------|------------------|----------|----------|----------|
C|----------|------------------|----------|----------|----------|
G|----------|------------------|----------|----------|----------|
C|000-0-0-00|000-0-0-00-000-000|000-0-0-00|000-0-0-00|000-0-0-00|

Intro:
F|-------------------------|
C|----8--------------------|
G|-------------------------|
C|0-----0------0-----0-----|

Verse:
F|-----------------------------------|--------------------------------|
C|-----------------------------------|--------------------------------|
G|-----------------------------------|--------------------------------|
C|---5~55~555~555~5558~88~888~888~888|0~00~000~000~0003~33~333~333~333|

F|-----------------------------------|--------------------------------|
C|-----------------------------------|--------------------------------|
G|-----------------------------------|--------------------------------|
C|---5~55~555~555~5558~88~888~888~888|0~00~000~000~0003~33~333~333~333|

PreChorus (x2)
F|-------------------------------------------|-----------------|-----------------|
C|-------------------------------------------|-----------------|-----------------|
G|-------------------------------------------|--8-7------8-7---|--8-7------8-7---|
C|5555555555553338~~8-8~-8-8-8~-8-8-8~-8-8-8-|00-0-10-0-0-0-10~|00-0-10-0-0-0-10~|


F|----------|-----------|-----------|-----------|-----------|----------|-------|
C|----------|-----------|-----------|-----------|-----------|----------|-------|
G|----------|-----------|-----------|-----------|-----------|----------|-------|
C|000-0-0-00|000~0~0~00~|000~0~0~00~|000~0~0~00~|000~0~0~00~|000~0~0~00|8~~~~~~|


Outro:
F|-------|-----------------------|
C|-------|-----------------------|
G|-------|-----------------------|
C|000--00|0-000~00000~0-0-0-0--00|
ADTR ROCKS!!!
Suggest correction
Give kudos to tab author, rate the tab!
1 2 3 4 5
comments
print report bad tab
guest
You may want to rate the tab now too:
select rating
Wanna post a correction for this tab? Suggest correction