Oops, an error
Loading. Please wait.

Dead And Buried Tab

version 1
version 1

Whole song

Interactive

8,498 views 6 this week
no commentswrite comment
1 2 3 4 5
x 10
add to favorites
launch autoscroll
font size
0
reset
how to read this tab
guitar tuner
×
Best way to learn
"Dead And Buried"
Autoscroll
slow
fast
+/-
esc
set tempo
stop
Author
Difficulty
Tuning
  follow
intermediate
B F# B E G# C#
A Day To Remember
Dead And Buried
Drop B




Intro - Guitar 1
C#|----------------------------------------------------------|
G#|----------------------------------------end here 2nd time-|
E |----------------------------------------|-----------------|
B |----------------------------------------|-----------------| x2
F#|-0000-0--0-0-0-0---0--0-0----0-0--0--0-0-0-0---0--0-0-----|
B |-0000-0--0-0-0-0---0--0-0----0-0--0--0-0-0-0---0--0-0-----|
    **** *  * * * *   *  * *    * *  *  * * * *   *  * *
Intro - Guitar 2
C#|--------------------------------|------------------end here 2nd time-|
G#|--------------------------------|------------------|-----------------|
E |-7-7-7-7-7-7-7-7-7-7-7-7h8-8-7-7h8-8-7-7-7-7-7-7-7-7-7-7h8-8-7-7-----|
B |-x-x-x-x-x-x-x-x-x-x-x-x-x-x-x-x|x-x-x-x-x-x-x-x-x-x-x-x-x-x-x-x-----| x2
F#|-5-5-5-5-5-5-5-5-5-5-5-5-5-5-5-5|5-5-5-5-5-5-5-5-5-5-5-5-5-5-5-5-----|
B |--------------------------------|------------------------------------|



Verse - Guitar 1 (& Guitar 2 for two repeats)
C#|----------------------------------------------------------|
G#|----------------------------------------------------------|
E |----------------------------------------------------------|
B |----------------------------------------------------------| x4
F#|-0000-0--0-0-0-0---0--0-0----0-0--0--0-0-0-0---0--0-0-----|
B |-0000-0--0-0-0-0---0--0-0----0-0--0--0-0-0-0---0--0-0-----|
    **** *  * * * *   *  * *    * *  *  * * * *   *  * *
Verse - Guitar 2 (3rd and 4th repeat)
C#|--------------------------------|------------------------------------|
G#|--------------------------------|------------------------------------|
E |-7-7-7-7-7-7-7-7-7-7-7-7h8-8-7-7h8-8-7-7-7-7-7-7-7-7-7-7h8-8-7-7-----|
B |-x-x-x-x-x-x-x-x-x-x-x-x-x-x-x-x|x-x-x-x-x-x-x-x-x-x-x-x-x-x-x-x-----| x2
F#|-5-5-5-5-5-5-5-5-5-5-5-5-5-5-5-5|5-5-5-5-5-5-5-5-5-5-5-5-5-5-5-5-----|
B |--------------------------------|------------------------------------|




Chorus - Guitar 1
C#|----8~---------8~----------8~--------8~-----------------------------------------6~-5~-3~~-|
G#|-6~----6~---------6~----6~----6~--------6~------------------------------------------------|
E |-----------7~--------7~----------7~------------7~----------7~----------7~-----------------|
B |--------------------------------------------7~----7~----7~----7~----7~----7~--------------| x3
F#|-----------------------------------------------------5~----------5~----------5~-----------|
B |------------------------------------------------------------------------------------------|
||   
Chorus - Guitar 2 (single A# at end)
C#|---------------------|
G#|--6~---6~---2~---3~--|
E |--7~---7~---2~---3~--|
B |--7~---7~---2~---3~--| x3
F#|--5~---4~---0~---1~--|
B |---------------------|
    x16  x16  x16  x16




Play Intro Again

Play Verse (As Breakdown)
          -Guitar 1 (x2)
          -Guitar 2 (x1)

Play Chorus (x3) (end on A chord)




*IMPORTANT* In the bridge are Vocal Harmonies which are different notes
to Guitar and make you think to change chord. Just so you know.
Bridge thing - Guitar 1
C#|-------------------------------|---------------------------------|
G#|-----------------------------------------------------------------|
E |-10~--\9~/10~--3~--5~------6~----10~--\9~/10~--3~------5~--6~----|
B |-x-----x-/x----x---x-------x-----x-----x-/x----x-------x---x-----| x1.5
F#|-8~---\7~/8~---1~--3~------4~----8~---\7~/8~---1~------3~--4~----|
B |-------------------------------|---------------------------------|
   x14   x2 x8   x8  x24     x8    x14   x2 x8   x24     x8  x8

Bridge thing - Guitar 2
C#|------------------------------|
G#|------------------------------|
E |------------------------------|
B |------------------------------| x6
F#|-00------00000--00-00-0-0000--|
B |-00------00000--00-00-0-0000--|
    **      *****  ** ** * ****




Breakdown 2 - Both Guitars
C#|--------------------------------------------------------------------------|
G#|--------------------------------------------------------------------------|
E |--------------------------------------------------------------------------|
B |-----------------------------------3~A.H----------------------------------|
F#|-00~00~00~0~-0000~--00~00~00~0~-000~--00~00~00~0~-0000~-00~00~00~0~-0000~-|
B |-00~00~00~0~-0000~--00~00~00~0~-000~--00~00~00~0~-0000~-00~00~00~0~-0000~-|
||  
C#|--------------------------------------------------------------------------|
G#|-----------------------------------------------------(Fade in F Chord)----|
E |--------------------------------------------------------------------------|
B |-----------------------------------3~A.H----------------------------------|
F#|-00-00-00-0--0000---00-00-00-0--000---00~00~00~0~-0000~-00~00~00~0~-0000~-|
B |-00-00-00-0--0000---00-00-00-0--000---00~00~00~0~-0000~-00~00~00~0~-0000~-|
    ** ** ** *  ****   ** ** ** *  ***   





Interlude - Guitar 1 Only (low distortion, some phaser)
      F                                 Fm7/E              Dm
C#|---1~-----1~---1~-----1~---1~-----1~---1~-----1~--------1~----1~----1~----1~--|
G#|---1~-----1~---1~-----1~---1~-----1~---1~-----1~--------3~----3~----3~----3~--|
E |---2~-2-2-2~---2~-2-2-2~---2~-2-2-2~---2~-2-2-2~--------2~----2~----2~----2~--|
B |-3-3~-3-3-3~-3-3~-3-3-3~-3-3~-3-3-3~-2-2~-2-2-2~-3-2-0--0~-0--0~-0--0~-0--0~--|
F#|------------------------------------------------------------------------------|
B |------------------------------------------------------------------------------|
||    A#               C
C#|----------------------------|
G#|----3~----3~----3~---1~-1~--|
E |----3~----3~----3~---0~-0~--|
B |----3~----3~----3~---2~-2~--| x2
F#|-1--1~-1--1~-1--1~-1-3~-3~--|
B |----------------------------|



Play Chorus (x1)

Play Intro (As Outro) 
  until last note.


Done. pl0x rate and comment
Suggest correction
comments
print report bad tab
guest
You may want to rate the tab now too:
select rating
Wanna post a correction for this tab? Suggest correction